Oops, an error
Loading. Please wait.

Hardcore Tab

267 views 1 this week
no commentswrite comment
1 2 3 4 5
please rate
add to favorites
launch autoscroll
font size
0
reset
how to read this tab
guitar tuner
Autoscroll
slow
fast
+/-
esc
set tempo
stop
Help us to improve Ultimate-Guitar.com Take our survey!
×
Author
Difficulty
advanced
Intro to Death Pays song Hardcore

-5-5-5-5-x-x-6---|
-5-5-5-5-x-x-6---|
-5-5-5-5-x-x-6---|
-5-5-5-5-x-x-6---|
-5-5-5-----------|
T- T-T L

-6-6-4-4-4------------|
-6-6-4-4-4------------|
-6-6-4-4-4------------|
-6-6-4-4-4------------|
-6-6-4-4-4------------|
-----4-4-4------------|
 T T T T T

-4-4-6-6/-4-4-5-5--------------|
-4-4-6-6/-4-4-5-5--------------|
-4-4-6-6/-4-4-5-5--------------|
-4-4-6-6/-4-4-5-5--------------|
-4-4-6-6/-4-4-5-5--------------|
-4-4------4-4------------------|
 T T T   T T  T T

-4-5-5-5-4-6-4-6-6-6-4-4-3-3/6-6-6------------|
-4-5-5-5-4-6-4-6-6-6-4-4-3-3/6-6-6------------|
-4-5-5-5-4-6-4-6-6-6-4-4-3-3/6-6-6------------|
-4-5-5-5-4-6-4-6-6-6-4-4-3-3/6-6-6------------|
-4-5-5-5-4-6-4-6-6-6-4-4-3-3/6-6-6------------|
-4-------4---4-------4-4----------------------|
 T T T T T T T T   T T T T   T T T

-5-6-6-6/4-4-4-4-4/5-5/4-4-4/6-5-5-4-4-5----------------------------|
-5-6-6-6/4-4-4-4-4/5-5/4-4-4/6-5-5-4-4-5----------------------------|
-5-6-6-6/4-4-4-4-4/5-5/4-4-4/6-5-5-4-4-5----------------------------|
-5-6-6-6/4-4-4-4-4/5-5/4-4-4/6-5-5-4-4-5----------------------------|
-5-6-6-6/4-4-4-4-4/5-5/4-4-4/6-5-5-4-4-5----------------------------|
-5-------4-4-4-4-4-----4-4-4-------4-4------------------------------|
 T T T     T T T T T   T T T T T T T T T

T-Tremolo Picking
/-Slide
L-Let Ring

Strumming is a Down/Up pattern first Strum is a down strum second strum is a up strum 
and so on. Simple notes used but a lot of tremolo picking. This song is a speed metal 
song. Here is the link to the song http://www.youtube.com/watch?v=XKcQomG7jZw
Tabbed Out By John Smith
Suggest correction
Give kudos to tab author, rate the tab!
1 2 3 4 5
comments
print report bad tab
guest
You may want to rate the tab now too:
select rating
Please do not post tabs as comments. Select "correction" instead!