Oops, an error
Loading. Please wait.

Choke On One Another Tab

46 views 3 this week
no commentswrite comment
1 2 3 4 5
3 more votes to show rating
add to favorites
launch autoscroll
font size
0
reset
how to read this tab
guitar tuner
Autoscroll
slow
fast
+/-
esc
set tempo
stop
Help us to improve Ultimate-Guitar.com Take our survey!
×
Author
Difficulty
About this tab version
Not sure about the end part, feel free to correct. Was this info helpful? Yes No
[Intro]

e|--------------------------------------------------------|------------------|
B|--------------------------------------------------------|------------------|
G|--------------------------------------------------------|------------------|
D|-2-2-2-2-2-2--2-2-2-2-2-4-4-5--2-2-2-2-2-2--2-2-2-2-2-5-|------------------|
A|-2-2-2-2-2-2--2-2-2-2-2-4-4-5--2-2-2-2-2-2--2-2-2-2-2-5-|------------------|
E|-0-0-0-0-0-0--0-0-0-0-0-2-2-3--0-0-0-0-0-0--0-0-0-0-0-3-|------------------|


[Verse]

e|--------------------------------------------------------|------------------|
B|--------------------------------------------------------|------------------|
G|--------------------------------------------------------|------------------|
D|-2-2-2-2-2-2--2-2-2-2-2-4-4-5--2-2-2-2-2-2--2-2-2-2-2-5-|------------------|
A|-2-2-2-2-2-2--2-2-2-2-2-4-4-5--2-2-2-2-2-2--2-2-2-2-2-5-|------------------|
E|-0-0-0-0-0-0--0-0-0-0-0-2-2-3--0-0-0-0-0-0--0-0-0-0-0-3-|------------------|
   DESTRUCTION...


[Chorus]

e|---------------------------------------------------------------------------|
B|---------------------------------------------------------------------------|
G|---------------------------------------------------------------------------|
D|-9-9-9-9-9-9-9-9-5-5-5-5-5-5-5-5-4-4-4-4-9-9-9-9-9-9-9-9-9-9-9-9-9-9-9-9---|
A|-9-9-9-9-9-9-9-9-5-5-5-5-5-5-5-5-4-4-4-4-9-9-9-9-9-9-9-9-9-9-9-9-9-9-9-9---|
E|-7-7-7-7-7-7-7-7-3-3-3-3-3-3-3-3-2-2-2-2-7-7-7-7-7-7-7-7-7-7-7-7-7-7-7-7---|
   My pain is      safe and        sound.   (you'll be the end of me, you'll be the end of me)
   Forgiveness     brings me       down.    (you'll be the end of me, you'll be the end of me)
e|---------------------------------------------------------------------------|
B|---------------------------------------------------------------------------|
G|---------------------------------------------------------------------------|
D|-9-9-9-9-9-9-9-9-13-13-13-13-13-13-13-13-13-9-9-9-9-9-9-9-9----------------|
A|-9-9-9-9-9-9-9-9-13-13-13-13-13-13-13-13-13-9-9-9-9-9-9-9-9----------------|
E|-7-7-7-7-7-7-7-7-11-11-11-11-11-11-11-11-11-7-7-7-7-7-7-7-7----------------|
   Hypnotizing...  Awe inspiring sterilizing  annihilation of our lies

[Verse]

e|--------------------------------------------------------|------------------|
B|--------------------------------------------------------|------------------|
G|--------------------------------------------------------|------------------|
D|-2-2-2-2-2-2--2-2-2-2-2-4-4-5--2-2-2-2-2-2--2-2-2-2-2-5-|------------------|
A|-2-2-2-2-2-2--2-2-2-2-2-4-4-5--2-2-2-2-2-2--2-2-2-2-2-5-|------------------|
E|-0-0-0-0-0-0--0-0-0-0-0-2-2-3--0-0-0-0-0-0--0-0-0-0-0-3-|------------------|
   Fill our heads...

[Chorus]

e|---------------------------------------------------------------------------|
B|---------------------------------------------------------------------------|
G|---------------------------------------------------------------------------|
D|-9-9-9-9-9-9-9-9-5-5-5-5-5-5-5-5-4-4-4-4-9-9-9-9-9-9-9-9-9-9-9-9-9-9-9-9---|
A|-9-9-9-9-9-9-9-9-5-5-5-5-5-5-5-5-4-4-4-4-9-9-9-9-9-9-9-9-9-9-9-9-9-9-9-9---|
E|-7-7-7-7-7-7-7-7-3-3-3-3-3-3-3-3-2-2-2-2-7-7-7-7-7-7-7-7-7-7-7-7-7-7-7-7---|
   My pain is      safe and        sound.   (you'll be the end of me, you'll be the end of me)
   Forgiveness     brings me       down.    (you'll be the end of me, you'll be the end of me)
e|---------------------------------------------------------------------------|
B|---------------------------------------------------------------------------|
G|---------------------------------------------------------------------------|
D|-9-9-9-9-9-9-9-9-13-13-13-13-13-13-13-13-13-9-9-9-9-9-9-9-9----------------|
A|-9-9-9-9-9-9-9-9-13-13-13-13-13-13-13-13-13-9-9-9-9-9-9-9-9----------------|
E|-7-7-7-7-7-7-7-7-11-11-11-11-11-11-11-11-11-7-7-7-7-7-7-7-7----------------|
   Hypnotizing...  Awe inspiring sterilizing  annihilation of our lies

e|---------------------------------------------------------------------------|
B|---------------------------------------------------------------------------|
G|---------------------------------------------------------------------------|
D|-13-13-13-13-13-13-13-13-13-9-9-9-9-9-9-9-9-9-9-9-9-9-9-9-9----------------|
A|-13-13-13-13-13-13-13-13-13-9-9-9-9-9-9-9-9-9-9-9-9-9-9-9-9----------------|
E|-11-11-11-11-11-11-11-11-11-7-7-7-7-7-7-7-7-7-7-7-7-7-7-7-7----------------|
   Power, there's so much power...
   Solace, I'll never find it...

[Verse]

e|--------------------------------------------------------|------------------|
B|--------------------------------------------------------|------------------|
G|--------------------------------------------------------|------------------|
D|-2-2-2-2-2-2--2-2-2-2-2-4-4-5--2-2-2-2-2-2--2-2-2-2-2-5-|------------------|
A|-2-2-2-2-2-2--2-2-2-2-2-4-4-5--2-2-2-2-2-2--2-2-2-2-2-5-|------------------|
E|-0-0-0-0-0-0--0-0-0-0-0-2-2-3--0-0-0-0-0-0--0-0-0-0-0-3-|------------------|

e|--------------------------------------------------------|------------------|
B|--------------------------------------------------------|------------------|
G|--------------------------------------------------------|------------------|
D|-2-2-2-2-2-2--2-2-2-2-2-4-4-5--2-2-2-2-2-2--2-2-2-2-2-5-|----repeat--------|
A|-2-2-2-2-2-2--2-2-2-2-2-4-4-5--2-2-2-2-2-2--2-2-2-2-2-5-|------------------|
E|-0-0-0-0-0-0--0-0-0-0-0-2-2-3--0-0-0-0-0-0--0-0-0-0-0-3-|------------------|
   Bright eyes, heard you wanted to try on some death...

e|--------------------------------------------------------|------------------|
B|--------------------------------------------------------|------------------|
G|--------------------------------------------------------|------------------|
D|-2-2-2-2-2-2--2-2-2-2-2-4-4-5--2-2-2-2-2-2--2-2-2-2-2-5-|----repeat--------|
A|-2-2-2-2-2-2--2-2-2-2-2-4-4-5--2-2-2-2-2-2--2-2-2-2-2-5-|------------------|
E|-0-0-0-0-0-0--0-0-0-0-0-2-2-3--0-0-0-0-0-0--0-0-0-0-0-3-|------------------|
Tick tock, baby, your time is up...

Suggest correction
Give kudos to tab author, rate the tab!
1 2 3 4 5
comments
print report bad tab
guest
You may want to rate the tab now too:
select rating
Wanna post a correction for this tab? Suggest correction