Oops, an error
Loading. Please wait.

Fantastic Bastards Tab

133 views 3 this week
no commentswrite comment
1 2 3 4 5
x 5
add to favorites
launch autoscroll
font size
0
reset
how to read this tab
guitar tuner
Autoscroll
slow
fast
+/-
esc
set tempo
stop
Help us to improve Ultimate-Guitar.com Take our survey!
×
[Intro]
E|--0-----|
B|--0-----|
G|--0-x16-|
D|--5-----|
A|--5-----|
E|--3-----|

[Verse]
E|--0-----|
B|--0-----|
G|--0-x32-|
D|--5-----|
A|--5-----|
E|--3-----|

E|--0-----0-----0-----0-----|
B|--0-----0-----0-----0-----|
G|--0-x8--0-x8--8-x8--0-x8--| X2
D|--5-----8-----8-----4-----|
A|--5-----8-----6-----4-----|
E|--3-----6-----0-----2-----|

[Chorus]
E|--------------------------------------------------------|
B|--------------------------------------------------------|
G|--------7--10-----------10-10-10--8--7----10--8--7------|
D|--8--10-------7--8--10-----------------8-----------8--8-|
A|--------------------------------------------------------|
E|--------------------------------------------------------|

E|-------------------------------------------------------|
B|-------------------------------------------------------|
G|--------7--10-----------10--10--8--7----10--8--7-------|
D|--8--10-------7--8--10----------------8-----------7--8-|
A|-------------------------------------------------------|
E|-------------------------------------------------------|

[Verse]
E|--0-----0-----0-----0-----|
B|--0-----0-----0-----0-----|
G|--0-x8--0-x8--8-x8--0-x8--| X2
D|--5-----8-----8-----4-----|
A|--5-----8-----6-----4-----|
E|--3-----6-----0-----2-----|

[Chorus]
E|--------------------------------------------------------|
B|--------------------------------------------------------|
G|--------7--10-----------10-10-10--8--7----10--8--7------|
D|--8--10-------7--8--10-----------------8-----------8--8-|
A|--------------------------------------------------------|
E|--------------------------------------------------------|
                                                            
E|-------------------------------------------------------|
B|-------------------------------------------------------|
G|--------7--10-----------10--10--8--7----10--8--7-------|
D|--8--10-------7--8--10----------------8-----------7--8-|
A|-------------------------------------------------------|
E|-------------------------------------------------------|

[Outro]

GUITAR 1
E|--------------------------------------------------------|
B|--------------------------------------------------------|
G|--------7--10-----------10-10-10--8--7----10--8--7------|
D|--8--10-------7--8--10-----------------8-----------8--8-|
A|--------------------------------------------------------|
E|--------------------------------------------------------|
                                                            
E|-------------------------------------------------------|
B|-------------------------------------------------------|
G|--------7--10-----------10--10--8--7----10--8--7-------|
D|--8--10-------7--8--10----------------8-----------7--8-|
A|-------------------------------------------------------|
E|-------------------------------------------------------|

GUITAR 2
E|--------------|     E|-----------------|
B|--------------|     B|-----------------|
G|--10--8--7----| x9  G|--10--8--7-------|
D|------------8-|     D|------------7--8-|
A|--------------|     A|-----------------|
E|--------------|     E|-----------------|
 

************************************

| x  Dead note 
************************************
Suggest correction
comments
print report bad tab
guest
You may want to rate the tab now too:
select rating
Wanna post a correction for this tab? Suggest correction