Oops, an error
Loading. Please wait.

Blitzkrieg tab

version 1
version 1

Whole song

Interactive

9,445 views 3 this week
11 commentsread comments
1 2 3 4 5
x 7
add to favorites
×
Save as Personal and add changes to this tab that will be seen only by you. Learn more ›
×
You can save this tab as Personal to edit and correct it or add notes. All changes will be seen only by you. Learn more »
launch autoscroll
font size
0
reset
how to read this tab
guitar tuner
edit
Autoscroll
slow
fast
+/-
esc
set tempo
stop
Song: Blitzkrieg
Artist: Deathstars
Album: Termination Bliss
Tabbed by: NeVaN (6) Slady
Tuning: Dropped D

-Intro (Chorus)  0:18
E|---------------------------------------------------------|
B|---------------------------------------------------------|
G|---------------------------------------------------------|
D|--xxxx-33x3----xxxx-11x1----xxxx-33x3----xxxx-66x6-------|
A|--xxxx-33x3----xxxx-11x1----xxxx-33x3----xxxx-66x6-------|
D|--xxxx-33x3----xxxx-11x1----xxxx-33x3----xxxx-66x6-------|

E|---------------------------------------------------------|
B|---------------------------------------------------------|
G|---------------------------------------------------------|
D|--xxxx-33x3----xxxx-11x1----xxxx-33x3----xxxx-66x6-------|
A|--xxxx-33x3----xxxx-11x1----xxxx-33x3----xxxx-66x6-------|
D|--xxxx-33x3----xxxx-11x1----xxxx-33x3----xxxx-66x6-------|


-Interlude  0:33
E|---------------------------------------------------------|
B|---------------------------------------------------------|
G|---------------------------------------------------------|
D|--xxxx-33x3----xxxx-11x1----xxxx-33x3----xxxx-66x6-------|
A|--xxxx-33x3----xxxx-11x1----xxxx-33x3----xxxx-66x6-------|
D|--xxxx-33x3----xxxx-11x1----xxxx-33x3----xxxx-66x6-------|

E|----------------------------------------------------------------------|
B|----------------------------------------------------------------------|
G|----------------------------------------------------------------------|
D|--xxxx-33x3----xxxx-33x3----xxxx-33x3----xxxx-33x3----xxxx-66x6-------|
A|--xxxx-33x3----xxxx-33x3----xxxx-33x3----xxxx-33x3----xxxx-66x6-------|
D|--xxxx-33x3----xxxx-33x3----xxxx-33x3----xxxx-33x3----xxxx-66x6-------|


-Chorus  1:00
E|---------------------------------------------------------|
B|---------------------------------------------------------|
G|---------------------------------------------------------|
D|--xxxx-33x3----xxxx-11x1----xxxx-33x3----xxxx-66x6-------|
A|--xxxx-33x3----xxxx-11x1----xxxx-33x3----xxxx-66x6-------|
D|--xxxx-33x3----xxxx-11x1----xxxx-33x3----xxxx-66x6-------|

E|---------------------------------------------------------|
B|---------------------------------------------------------|
G|---------------------------------------------------------|
D|--xxxx-33x3----xxxx-11x1----xxxx-33x3----xxxx-66x6-------|
A|--xxxx-33x3----xxxx-11x1----xxxx-33x3----xxxx-66x6-------|
D|--xxxx-33x3----xxxx-11x1----xxxx-33x3----xxxx-66x6-------|

-Interlude  0:33
E|---------------------------------------------------------|
B|---------------------------------------------------------|
G|---------------------------------------------------------|
D|--xxxx-33x3----xxxx-11x1----xxxx-33x3----xxxx-66x6-------|
A|--xxxx-33x3----xxxx-11x1----xxxx-33x3----xxxx-66x6-------|
D|--xxxx-33x3----xxxx-11x1----xxxx-33x3----xxxx-66x6-------|

E|----------------------------------------------------------------------|
B|----------------------------------------------------------------------|
G|----------------------------------------------------------------------|
D|--xxxx-33x3----xxxx-33x3----xxxx-33x3----xxxx-33x3----xxxx-66x6-------|
A|--xxxx-33x3----xxxx-33x3----xxxx-33x3----xxxx-33x3----xxxx-66x6-------|
D|--xxxx-33x3----xxxx-33x3----xxxx-33x3----xxxx-33x3----xxxx-66x6-------|

-Chorus  1:00
E|---------------------------------------------------------|
B|---------------------------------------------------------|
G|---------------------------------------------------------|
D|--xxxx-33x3----xxxx-11x1----xxxx-33x3----xxxx-66x6-------|
A|--xxxx-33x3----xxxx-11x1----xxxx-33x3----xxxx-66x6-------|
D|--xxxx-33x3----xxxx-11x1----xxxx-33x3----xxxx-66x6-------|

E|---------------------------------------------------------|
B|---------------------------------------------------------|
G|---------------------------------------------------------|
D|--xxxx-33x3----xxxx-11x1----xxxx-33x3----xxxx-66x6-------|
A|--xxxx-33x3----xxxx-11x1----xxxx-33x3----xxxx-66x6-------|
D|--xxxx-33x3----xxxx-11x1----xxxx-33x3----xxxx-66x6-------|


"This is the end....."    2:00
E|------------------------------------------------------------------------|
B|------------------------------------------------------------------------|
G|------------------------------------------------------------------------|
D|3-33-33-33-3-33----1-11-11-11-1-11----6-66-66-66-6-66----3-33-33-33-3-33|
A|3-33-33-33-3-33----1-11-11-11-1-11----6-66-66-66-6-66----3-33-33-33-3-33|
D|3-33-33-33-3-33----1-11-11-11-1-11----6-66-66-66-6-66----3-33-33-33-3-33|

-Interlude  2:14
E|---------------------------------------------------------|
B|---------------------------------------------------------|
G|---------------------------------------------------------|
D|--xxxx-33x3----xxxx-11x1----xxxx-33x3----xxxx-66x6-------|
A|--xxxx-33x3----xxxx-11x1----xxxx-33x3----xxxx-66x6-------|
D|--xxxx-33x3----xxxx-11x1----xxxx-33x3----xxxx-66x6-------|

E|----------------------------------------------------------------------|
B|----------------------------------------------------------------------|
G|----------------------------------------------------------------------|
D|--xxxx-33x3----xxxx-33x3----xxxx-33x3----xxxx-33x3----xxxx-66x6-------|
A|--xxxx-33x3----xxxx-33x3----xxxx-33x3----xxxx-33x3----xxxx-66x6-------|
D|--xxxx-33x3----xxxx-33x3----xxxx-33x3----xxxx-33x3----xxxx-66x6-------|


-Chorus  2:41
E|---------------------------------------------------------|
B|---------------------------------------------------------|
G|---------------------------------------------------------|
D|--xxxx-33x3----xxxx-11x1----xxxx-33x3----xxxx-66x6-------|
A|--xxxx-33x3----xxxx-11x1----xxxx-33x3----xxxx-66x6-------|
D|--xxxx-33x3----xxxx-11x1----xxxx-33x3----xxxx-66x6-------|

E|---------------------------------------------------------|
B|---------------------------------------------------------|
G|---------------------------------------------------------|
D|--xxxx-33x3----xxxx-11x1----xxxx-33x3----xxxx-66x6-------|
A|--xxxx-33x3----xxxx-11x1----xxxx-33x3----xxxx-66x6-------|
D|--xxxx-33x3----xxxx-11x1----xxxx-33x3----xxxx-66x6-------|


-Bridge   2:54
E|-------------------------------------------------------------|
B|-------------------------------------------------------------|
G|-------------------------------------------------------------|
D|6------3------xxxx-33x3----xxxx-11x1------6------3------1----|
A|6------3------xxxx-33x3----xxxx-11x1------6------3------1----|
D|6------3------xxxx-33x3----xxxx-11x1------6------3------1----|


"This is the end....."    3:15
E|------------------------------------------------------------------------|
B|------------------------------------------------------------------------|
G|------------------------------------------------------------------------|
D|3-33-33-33-3-33----1-11-11-11-1-11----6-66-66-66-6-66----3-33-33-33-3-33|
A|3-33-33-33-3-33----1-11-11-11-1-11----6-66-66-66-6-66----3-33-33-33-3-33|
D|3-33-33-33-3-33----1-11-11-11-1-11----6-66-66-66-6-66----3-33-33-33-3-33|

E|------------------------------------------------------------------------|
B|------------------------------------------------------------------------|
G|------------------------------------------------------------------------|
D|3-33-33-33-3-33----1-11-11-11-1-11----6-66-66-66-6-66----3-33-33-33-3-33|
A|3-33-33-33-3-33----1-11-11-11-1-11----6-66-66-66-6-66----3-33-33-33-3-33|
D|3-33-33-33-3-33----1-11-11-11-1-11----6-66-66-66-6-66----3-33-33-33-3-33|

Si tienen alguna duda aqui tienen mi
E-mail: nevan666@hotmail.com

            
            
Suggest correction
Creating personal tab
Creating personal tab
You can edit any tab online and save it as your Personal.

You can edit, replace or remove any tab part or add personal notes – all changes will be seen only by you.

Personal tabs can be accessed anytime from any device, even offline.
Learn more »
comments
print report bad tab
11 comments total. Showing first comments.
0 reply
boltstein 10 Oct 18, 2006 09:53 AM

not very accurate

0 reply
DNC 54 Oct 25, 2006 03:42 AM

agree to last comment.

0 reply
lone_guitarist9 72 Nov 01, 2006 04:46 PM

Deathstars always ALWAYS play in drop c tuning... so your off

guest
Wanna post a correction for this tab? Suggest correction