Oops, an error
Loading. Please wait.

Blitzkrieg tab

version 2
version 2

Whole song

Interactive

1,919 views 1 this week
8 commentsread comments
1 2 3 4 5
x 4
add to favorites
×
Save as Personal and add changes to this tab that will be seen only by you. Learn more ›
×
You can save this tab as Personal to edit and correct it or add notes. All changes will be seen only by you. Learn more »
launch autoscroll
font size
0
reset
how to read this tab
guitar tuner
edit
Autoscroll
slow
fast
+/-
esc
set tempo
stop
Blitzkrieg
By Deathstars

Tabbed by Jon C
Tuning = Drop C (CGCFAd)


Key
---
pm... = Palm mute

Intro and main riff
-------------------

d---------------------------------------------------------|
A---------------------------------------------------------|
F---------------------------------------------------------|
C-------3-0-3--------1-1---1--------3-0-3--------6-6-0-6--|
G-000-0-3-0-3--000-0-1-1-0-1--000-0-3-0-3--000-0-6-6-0-6--|
C-000-0-3-0-3--000-0-1-1-0-1--000-0-3-0-3--000-0-6-6-0-6--|
pm.....        .....        .....        .....

Riff 2
------

d-----------------------------------------------------|
A-----------------------------------------------------|
F-----------------------------------------------------|
C-------3-0-3--------1---1--------3-0-3--------6-0-6--|
G-000-0-3-0-3--000-0-1-0-1--000-0-3-0-3--000-0-6-0-6--|
C-000-0-3-0-3--000-0-1-0-1--000-0-3-0-3--000-0-6-0-6--|
pm.....        .....        .....        .....


Riff 3
------

d-----------------------------------------------------|
A-----------------------------------------------------|
F-----------------------------------------------------|
C-------3-0-3--------3-0-3--------3-0-3--------6-0-6--|
G-000-0-3-0-3--000-0-3-0-3--000-0-3-0-3--000-0-6-0-6--|
C-000-0-3-0-3--000-0-3-0-3--000-0-3-0-3--000-0-6-0-6--|
pm.....        .....        .....        .....

Riff 4
------

d----------------------------------------------------------|
A----------------------------------------------------------|
F-7------7------7----5------5------5-----------------------|
C-7--7-7-7--7-7-7-7--5--5-5-5--5-5-5-5--8------8------8----|
G-5--5-5-5--5-5-5-5--3--3-3-3--3-3-3-3--8--8-8-8--8-8-8-8--|
C---------------------------------------8--8-8-8--8-8-8-8--|
pm   ...    ...   .     ...    ...   .     ...    ...   .

d--------------------|
A--------------------|
F--------------------|
C-5------7------7----|
G-5--5-5-7--7-7-7-7--|
C-5--5-5-7--7-7-7-7--|
     ...    ...   .

Thats the rough structure. there are riffs i've missed that are easy to work out and the 
i've left out for now, and i'll put them all in later sometime. until then, this should 
sufficient ;)

enjoy and rate lol

            
            
Suggest correction
Creating personal tab
Creating personal tab
You can edit any tab online and save it as your Personal.

You can edit, replace or remove any tab part or add personal notes – all changes will be seen only by you.

Personal tabs can be accessed anytime from any device, even offline.
Learn more »
comments
print report bad tab
8 comments total. Showing first comments.
0 reply
boltstein 10 May 22, 2007 01:41 AM

shit

0 reply
Joltt 63 Jun 01, 2007 03:42 PM

Actually, this sounds pretty accurate. If only you had the extra little bits in. Great tab. :)

0 reply
cincit2 116 Jun 06, 2007 01:52 PM

hey man, thanks for the possitive comment. i'll add the little bits in when i can get the time lol

guest
You may want to rate the tab now too:
select rating
Wanna post a correction for this tab? Suggest correction