Oops, an error
Loading. Please wait.

Death Dies Hard bass

version 3
version 3

Whole song

Interactive

275 views 3 this week
no commentswrite comment
1 2 3 4 5
3 more votes to show rating
add to favorites
×
Save as Personal and add changes to this tab that will be seen only by you. Learn more ›
×
You can save this tab as Personal to edit and correct it or add notes. All changes will be seen only by you. Learn more »
launch autoscroll
font size
0
reset
guitar tuner
edit
Autoscroll
slow
fast
+/-
esc
set tempo
stop
                     Deathstars - Death Dies Hard


Tabbed By : Tank Adams
e-mail: yr7boy@hotmail.co.uk

Tuning: CGCFAD (Drop C)




 Intro/Main Riff 2X

F|------------------------------------------------------------|
C|------------------------------------------------------------|
G|2-2-2-2-2-2-2-----------------2-2-2-2-2-2-2---------0-0-0-0-|
C|--------------5-5-5-5-2-2-2-2---------------5-5-5-5---------|

 Verse 1 4X (i figured out the notes played on the synth here and interpreted it on 
bass, you dont have to play this though)

F|------------------------------------------------------------|
C|------------------------------------------------------------|
G|2---5-4-----7-4-2-------------------------------------------|
C|--------5---------------------------------------------------|

 Pre-Chorus 1 1X

F|------------------------------------------------------------|
C|------------------------------------------------------------|
G|----------0---2---------------------------------------------|
C|5--4----2-------5---2--4-4-4--------------------------------|

 Chorus 1/Main Riff 2X

F|------------------------------------------------------------|
C|------------------------------------------------------------|
G|2-2-2-2-2-2-2-----------------2-2-2-2-2-2-2---------0-0-0-0-|
C|--------------5-5-5-5-2-2-2-2---------------5-5-5-5---------|

 Verse 2 4X (Remember you don't have to play the synth notes)

F|------------------------------------------------------------|
C|------------------------------------------------------------|
G|2---5-4-----7-4-2-------------------------------------------|
C|--------5---------------------------------------------------|

 Pre-Chorus 2 1X

F|------------------------------------------------------------|
C|------------------------------------------------------------|
G|----------0---2---------------------------------------------|
C|5--4----2-------5---2--4-4-4--------------------------------|

 Chorus 2/Main Riff 2X

F|------------------------------------------------------------|
C|------------------------------------------------------------|
G|2-2-2-2-2-2-2-----------------2-2-2-2-2-2-2---------0-0-0-0-|
C|--------------5-5-5-5-2-2-2-2---------------5-5-5-5---------|

 Bridge 1X

F|------------------------------------------------------------|
C|------------------------------------------------------------|
G|2~~-----------2~~-------------------------------------------|
C|------------------------------------------------------------|


 Rest for a few measures



 Chorus 3/Main Riff Variation 1X

F|------------------------------------------------------------|
C|------------------------------------------------------------|
G|2-2-2-2-2-2-2-----------------2-2-2-2-2-2-2---------0-0-0-0-|
C|--------------5-5-5-5-2-2-2-2---------------5-5-5-5---------|

F|------------------------------------------------------------|
C|------------------------------------------------------------|
G|2-2-2-2-2-2-2-----------------2-2-2-2-2-2-2-----------------|
C|--------------5-5-5-5-2-2-2-2---------------xx-xx-----------|

  Outro Chorus 2X

F|------------------------------------------------------------|
C|------------------------------------------------------------|
G|2-2-2-2-2-2-2-----------------2-2-2-2-2-2-2---------0-0-0-0-|
C|--------------5-5-5-5-2-2-2-2---------------5-5-5-5---------|

            
            
Suggest correction
Creating personal tab
Creating personal tab
You can edit any tab online and save it as your Personal.

You can edit, replace or remove any tab part or add personal notes – all changes will be seen only by you.

Personal tabs can be accessed anytime from any device, even offline.
Learn more »
Give kudos to tab author, rate the tab!
1 2 3 4 5
comments
print report bad tab
guest
You may want to rate the tab now too:
select rating
Wanna post a correction for this tab? Suggest correction