Oops, an error
Loading. Please wait.

Synthetic Generation album tab

version 1
version 1

Album

Whole song

Interactive

1,679 views 1 this week
no commentswrite comment
1 2 3 4 5
1 last vote to show rating
add to favorites
×
Save as Personal and add changes to this tab that will be seen only by you. Learn more ›
×
You can save this tab as Personal to edit and correct it or add notes. All changes will be seen only by you. Learn more »
launch autoscroll
font size
0
reset
how to read this tab
guitar tuner
edit
Autoscroll
slow
fast
+/-
esc
set tempo
stop
___________________________________________________________________________
===========================================================================

                           Synthetic Generation
                                 The Album


                              The Deathstars

===========================================================================
===========================================================================

Tabbed by: John Moores
Email:  mooresjw@email.uc.edu




============================================================================

Track 1                Semi-Automatic

============================================================================

Many thanks to RZK-600, this is his version, I found it to be pretty much
exactly the way would have tabbed it out, with the addition of timing
labels.  Thanks again!



Band: Deathstars                      /=Slide Up
Song: Semi-Automatic                  Deathstars.net
Album: Synthetic Generation
Tuning: Drop C (C-G-C-F-A-D)

Riff 1
|--------------------------------------------------------------------|
|--------------------------------------------------------------------|
|--------------------------------------------------------------------|
|-6-6-6-6-6-6-6-6-2-2-2-2-7-7-7-7-6-6-6-6-6-6-6-6---------7-7-7-7----|
|-4-4-4-4-4-4-4-4-0-0-0-0-5-5-5-5-4-4-4-4-4-4-4-4-4-4-4-4-5-5-5-5----|
|-------------------------------------------------4-4-4-4------------|

Verse-(Played with Bass & Keyboards only)

Riff 2
|------------------------------------------------------------------------|
|------------------------------------------------------------------------|
|------------------------------------------------------------------------|
|-6-6-4/6--6-6-4/6--4-4-4-4-----7-7--6-6-4/6--6-6-4/6--4-4-4-4-----7-7---|
|-4-4-2/4--4-4-2/4--2-2-2-2-4-4-5-5--4-4-2/4--4-4-2/4--2-2-2-2-4-4-5-5---|
|---------------------------4-4--------------------------------4-4-------|

|--------------------------------------------------------------------|
|--------------------------------------------------------------------|
|--------------------------------------------------------------------|
|-6-6-4/6--6-6-4/6--4-4-4-4-----7-7--6-6-4/6--6-6-4/6--4-4-4-4-------|
|-4-4-2/4--4-4-2/4--2-2-2-2-4-4-5-5--4-4-2/4--4-4-2/4--2-2-2-2-4~----|
|---------------------------4-4--------------------------------4~----|

Riff 1
|--------------------------------------------------------------------|
|--------------------------------------------------------------------|
|--------------------------------------------------------------------|
|-6-6-6-6-6-6-6-6-2-2-2-2-7-7-7-7-6-6-6-6-6-6-6-6---------7-7-7-7----|
|-4-4-4-4-4-4-4-4-0-0-0-0-5-5-5-5-4-4-4-4-4-4-4-4-4-4-4-4-5-5-5-5----|
|-------------------------------------------------4-4-4-4------------|

Verse-(Played with Bass & Keyboards only)

Riff 2
|------------------------------------------------------------------------|
|------------------------------------------------------------------------|
|------------------------------------------------------------------------|
|-6-6-4/6--6-6-4/6--4-4-4-4-----7-7--6-6-4/6--6-6-4/6--4-4-4-4-----7-7---|
|-4-4-2/4--4-4-2/4--2-2-2-2-4-4-5-5--4-4-2/4--4-4-2/4--2-2-2-2-4-4-5-5---|
|---------------------------4-4--------------------------------4-4-------|

|--------------------------------------------------------------------|
|--------------------------------------------------------------------|
|--------------------------------------------------------------------|
|-6-6-4/6--6-6-4/6--4-4-4-4-----7-7--6-6-4/6--6-6-4/6--4-4-4-4-------|
|-4-4-2/4--4-4-2/4--2-2-2-2-4-4-5-5--4-4-2/4--4-4-2/4--2-2-2-2-4~----|
|---------------------------4-4--------------------------------4~----|

Riff 1
|--------------------------------------------------------------------|
|--------------------------------------------------------------------|
|--------------------------------------------------------------------|
|-6-6-6-6-6-6-6-6-2-2-2-2-7-7-7-7-6-6-6-6-6-6-6-6---------7-7-7-7----|
|-4-4-4-4-4-4-4-4-0-0-0-0-5-5-5-5-4-4-4-4-4-4-4-4-4-4-4-4-5-5-5-5----|
|-------------------------------------------------4-4-4-4------------|

Verse-(Keyboards)

Riff 3
|------------------------------------------------------------|
|------------------------------------------------------------|
|------------------------------------------------------------|
|-6-6--6-6-6--6-6-6--6-6-6--6--------------------------------|
|-4-4--4-4-4--4-4-4--4-4-4--4--2-2--2-2-2--2--4-4--4--4-4----|
|------------------------------2-2--2-2-2--2--4-4--4--4-4----|

|------------------------------------------------------------|
|------------------------------------------------------------|
|------------------------------------------------------------|
|-6-6--6-6-6--6-6-6--6-6-6--6--2-2--2-2-2--2-----------------|
|-4-4--4-4-4--4-4-4--4-4-4--4--0-0--0-0-0--0--4-4--4--4-4----|
|---------------------------------------------4-4--4--4-4----|


Riff 1
|--------------------------------------------------------------------|
|--------------------------------------------------------------------|
|--------------------------------------------------------------------|
|-6-6-6-6-6-6-6-6-2-2-2-2-7-7-7-7-6-6-6-6-6-6-6-6---------7-7-7-7----|
|-4-4-4-4-4-4-4-4-0-0-0-0-5-5-5-5-4-4-4-4-4-4-4-4-4-4-4-4-5-5-5-5----|
|-------------------------------------------------4-4-4-4------------|

Riff 4
|---------------|
|---------------|
|---------------|
|-3--2----------|
|-1--0--1--0----|
|-------1--0----|





============================================================================

Track 2                Synthetic Generation

============================================================================


While tabbing this song, I am pretty certain it was 
recorded in Drop B, giving the main chord of the chorus
the lowest tone possible, vs the octave up. But I have 
used, and tabbed it out in Drop C, and it sounds pretty 
good just the same, almost hard to tell a difference, but 
here it is.


Drop C Tuning (CGCFAD)

* = Palm Mute
@ = Pinched harmonic
x = muted

Intro/Main Riff
0:07

|--------------|---------------------|
|--------------|---------------------|
|--------------|---------------------|
|--------------|---------------------|  x7
|--444-4-44-4--|---4444-4-44-4-------|
|--------------|---------------------|
   *** * ** *      **** * ** *

Verse 1
0:21

|-------------------------------------------------|
|-------------------------------------------------|
|--------Nothing is played during-----------------|
|--------------this part--------------------------|
|-------------------------------------------------|
|-------------------------------------------------|


Pre-Chorus
0:35

|-------------------------------------------------|
|-------------------------------------------------|
|---2---5--6----------2---5-----------------------|
|---2---5--6---6------2---5--6--------------------|
|---0---3--4---6------0---3--6--------------------|
|--------------6-------------6--------------------|


Chorus
0:41

|---------------------|
|---------------------|
|---------------------|
|---6---6-4---7-------|  x3
|---4---6-4---7-------|
|-------6-4---7-------|

|---------------------|
|---------------------|
|---------------------|
|--7-----10-----------|
|--7-----10-----------|
|--7-----10-----------|


Intro Riff
0:55

|--------------|---------------------|
|--------------|---------------------|
|--------------|---------------------|
|--------------|---------------------|  x7
|--444-4-44-4--|---4444-4-44-4-------|
|--------------|---------------------|
   *** * ** *      **** * ** *

Verse 2
1:09

|-------------------------------------------------|
|-------------------------------------------------|
|--------Nothing is played during-----------------|
|--------------this part--------------------------|
|-------------------------------------------------|
|-------------------------------------------------|


Pre-Chorus
1:22

|-------------------------------------------------|
|-------------------------------------------------|
|---2---5--6----------2---5-----------------------|
|---2---5--6---6------2---5--6--------------------|
|---0---3--4---6------0---3--6--------------------|
|--------------6-------------6--------------------|



Chorus
1:29
                              _
|---------------------|        |
|---------------------|        |
|---------------------|        |
|---6---6-4---7-------|  x3    |
|---4---6-4---7-------|        |
|-------6-4---7-------|        |
                               |>>  x2
|---------------------|        |
|---------------------|        |
|---------------------|        |
|--7-----10-----------|        |
|--7-----10-----------|        |
|--7-----10-----------|        |
                              _|



Bridge
1:57

|-------------------------------------------------|
|-------------------------------------------------|
|--------Nothing is played during-----------------|
|--------------this part--------------------------|
|-------------------------------------------------|
|-------------------------------------------------|


Pre-chorus
2:24

|-------------------------------------------------|
|-------------------------------------------------|
|---2---5--6----------2---5-----------------------|
|---2---5--6---6------2---5--6--------------------|
|---0---3--4---6------0---3--6--------------------|
|--------------6-------------6--------------------|



Chorus
2:31
                              _
|---------------------|        |
|---------------------|        |
|---------------------|        |
|--11---6-4---7-------|  x3    |
|--11---6-4---7-------|        |
|--11---6-4---7-------|        |
                               |>>  x3
|---------------------|        |
|---------------------|        |
|---------------------|        |
|--7-----10-----------|        |
|--7-----10-----------|        |
|--7-----10-----------|        |
                              _|



Ending
3:12

|--------------|-----------------------|
|--------------|-----------------------|
|--------------|------------------6~~--|
|--------------|------------------6~~--|
|--777-7-77-7--|---7777-7-66-6----4~~--|
|--777-7-77-7--|---7777-7-66-6---------|
   ***   **        ****   ** *




===========================================================

Track 3                New Dead Nation

===========================================================


Drop C Tuning (CGCFAD)

* = Palm Mute
@ = Pinched harmonic
x = muted

Intro/Main Riff
0:06

|-------|------------------------------------------|
|-------|------------------------------------------|
|-------|------------------------------------------|
|---\---|----------0--------------1----------------| x8
|---\---|-----0-0--0--------------1----------------|
|---\---|-----0-0--0--00000---00--1----------------|
              * *     ****    **


Verse 1
0:21

|-------------------------------------------------|
|-------------------------------------------------|
|------Nothing is played--------------------------|
|----------------during the verse-----------------|
|-------------------------------------------------|
|-------------------------------------------------|


Pre-chorus
0:34

|-------------------------------------------------|
|-------------------------------------------------|
|-------------------------------------------------|
|----5------8--------1----------------------------|
|----5----7-8---11---1----------------------------|
|----5----7-8---11---1-0-0-00000--1-1-0-0--00000--|
                       * * ****       * *  *****

|-------------------------------------------------|
|-------------------------------------------------|
|-------------------------------------------------|
|----5------8---5---7---------7-7---7-------------|
|----5----7-8---5---7---------7-7---7-------------|
|----5----7-8---5---7---------7-7---7-------------|


Chorus
0:49

|-------------------------------------------------|
|-------------------------------------------------|
|-------------------------------------------------|
|---0---------8--------------0--------------------|
|---0---------8-------5------0--------------------|
|---0---------8-------5------0--------------------|


|------------------------------------------|
|------------------------------------------|
|------------------------------------------|
|------8-----------7-----------------------|
|------8-------5---7---0--3p1--------------|
|------8-------5---7---0--3p1--------------|
                       *  *

1:01
|------------------------------------------|
|------------------------------------------|
|------------------------------------------|
|----------0--------------1----------------| x8
|-----0-0--0--------------1----------------|
|-----0-0--0--00000---00--1----------------|
      * *     ****    **

Verse 2
1:15

|-------------------------------------------------|
|-------------------------------------------------|
|------Nothing is played--------------------------|
|----------------during the verse-----------------|
|-------------------------------------------------|
|-------------------------------------------------|

Pre-chorus
1:29

|-------------------------------------------------|
|-------------------------------------------------|
|-------------------------------------------------|
|----5------8--------1----------------------------|
|----5----7-8---11---1----------------------------|
|----5----7-8---11---1-0-0-00000--1-1-0-0--00000--|
                       * * ****       * *  *****

|-------------------------------------------------|
|-------------------------------------------------|
|-------------------------------------------------|
|----5------8---5---7---------7-7---7-------------|
|----5----7-8---5---7---------7-7---7-------------|
|----5----7-8---5---7---------7-7---7-------------|


Chorus
1:42

|------------------------------------------|
|------------------------------------------|
|------------------------------------------|
|---0---------8--------------0-------------|
|---0---------8-------5------0-------------|
|---0---------8-------5------0-------------|
                                              x2
|------------------------------------------|
|------------------------------------------|
|------------------------------------------|
|------8-----------7-----------------------|
|------8-------5---7---0--3p1--------------|
|------8-------5---7---0--3p1--------------|
                       *  *

2:10
|------------------------------------------|
|------------------------------------------|
|------------------------------------------|
|----------0--------------1----------------| x6
|-----0-0--0--------------1----------------|
|-----0-0--0--00000---00--1----------------|
      * *     ****    **

Final Time
|------------------------------------------|
|------------------------------------------|
|------------------------------------------|
|----------0--------------1------0-0---0---|
|-----0-0--0--------------1------0-0---0---|
|-----0-0--0--00000---00--1------0-0---0---|
      * *     ****    **

Chorus
2:51

|------------------------------------------|
|------------------------------------------|
|------------------------------------------|
|---0---------8--------------0-------------|
|---0---------8-------5------0-------------|
|---0---------8-------5------0-------------|
                                              x3
|------------------------------------------|
|------------------------------------------|
|------------------------------------------|
|------8-----------7-----------------------|
|------8-------5---7---0--3p1--------------|
|------8-------5---7---0--3p1--------------|
                       *  *

3:32
|------------------------------------------|
|------------------------------------------|
|------------------------------------------|
|-------8------5--5--5---------------------|
|-------8------5--5--5---------------------|
|-------8------5--5--5---------------------|




===========================================================

Track 4                   Syndrome

===========================================================



Drop C Tuning (CGCFAD)

* = Palm Mute
@ = Pinched harmonic
x = muted

Intro/Main Riff
0:05

|---------------------------|
|---------------------------|
|---------------------------|
|---------------------------| x4
|---------------------------|
|--2-2-2---22-2-2-2---------|
   * * *   ** * * *


Verse 1
0:15

|---------------------------|
|---------------------------|
|---------------------------|
|---------------------------| x4
|---------------------------|
|--2-2-2---22-2-2-2---------|
   * * *   ** * * *


|---------------------------|
|---------------------------|
|---------------------------|
|---------------------------| x4
|---------------------------|
|--2-2-2-2--222-2-2-2-------|
   * * * *  *** * * *

(This change is rhythm is barely 
audible, so it doesn't matter 
if you want to just continue 
the prior rhythm or not.)



Chorus
0:42

|----------------------------------------------|
|----------------------------------------------|
|----------------------------------------------|
|-22-2-2-2-----------------77-7-7-7--77-7-7-7--|  x3
|-00-0-0-0-33-3-3-3--3-3-3-55-5-5-5--55-5-5-5--|
|----------33-3-3-3--3-3-3---------------------|
  ** * * * ** * * *  * * * ** * * *  ** * * *

|----------------------------------------------|
|----------------------------------------------|
|----------------------------------------------|
|-22-2-2-2-------------------------------------|
|-00-0-0-0-33-3-3-3--3-3-3-55-5-5-5--55-5-3-0--|
|----------33-3-3-3--3-3-3---------------------|
  ** * * * ** * * *  * * * ** * * *  ** * * *


Intro Riff
1:02

|---------------------------|
|---------------------------|
|---------------------------|
|---------------------------| x4
|---------------------------|
|--2-2-2---22-2-2-2---------|
   * * *   ** * * *


Verse 2
1:13

|---------------------------|
|---------------------------|
|---------------------------|
|---------------------------| x4
|---------------------------|
|--2-2-2---22-2-2-2---------|
   * * *   ** * * *


|---------------------------|
|---------------------------|
|---------------------------|
|---------------------------| x4
|---------------------------|
|--2-2-2-2--222-2-2-2-------|
   * * * *  *** * * *


Chorus
1:39

|----------------------------------------------|
|----------------------------------------------|
|----------------------------------------------|
|-22-2-2-2-----------------77-7-7-7--77-7-7-7--|  x3
|-00-0-0-0-33-3-3-3--3-3-3-55-5-5-5--55-5-5-5--|
|----------33-3-3-3--3-3-3---------------------|
  ** * * * ** * * *  * * * ** * * *  ** * * *

|----------------------------------------------|
|----------------------------------------------|
|----------------------------------------------|
|-22-2-2-2-------------------------------------|
|-00-0-0-0-33-3-3-3--3-3-3-55-5-5-5--55-5-3-0--|
|----------33-3-3-3--3-3-3---------------------|
  ** * * * ** * * *  * * * ** * * *  ** * * *


Bridge
1:59


Chorus  (1 whole step up from last time)
2:25

|----------------------------------------------|
|----------------------------------------------|
|----------------------------------------------|
|-99-9-9-9-----------------99-9-9-9--99-9-9-9--|  x7
|-99-9-9-9-55-5-5-5--5-5-5-77-7-7-7--77-7-7-7--|
|-99-9-9-9-55-5-5-5--5-5-5---------------------|
  ** * * * ** * * *  * * * ** * * *  ** * * *


|-----------------------|
|-----------------------|
|-----------------------|
|----99-9---------------|
|----99-9---------------|
|----99-9---------------|
     ** *




===========================================================

Track 5                Modern Death

===========================================================


Drop C Tuning (CGCFAD)

* = Palm Mute
@ = Pinched harmonic
x = muted

Intro/Main Riff
0:17

|-------------------------------------------------|
|-------------------------------------------------|
|--------------------------------------5----------|
|--2----5------2---1-----2---5----2----5---1------|  x2
|--2----5------2---1-----2---5----2----3---1------|
|--2----5------2---1-----2---5----2--------1------|


Verse 1
0:32
|-------------------------------------------------|
|-------------------------------------------------|
|------Nothing is played during-------------------|
|----------this part of the verse-----------------|
|-------------------------------------------------|
|-------------------------------------------------|

0:45
|-------------------------------------------------|
|-------------------------------------------------|
|-------------------------------------------------|
|--2-2-2------------------2-2-2-------------------|
|--2-2-2-----55-----------2-2-2-----11------------|
|--2-2-2--55555----55-----2-2-2--11111-----1-1----|
   * * *  *****    **     * * *  *****     * *
                                                     x2
|-------------------------------------------------|
|-------------------------------------------------|
|-------------------------------------------------|
|--2-2-2------------------2-2-2-----55------------|
|--2-2-2-----55-----------2-2-2--33333------1-----|
|--2-2-2--55555----55-----2-2-2-------------1-----|
   * * *  *****    **     * * *  *****      *


Chorus
1:03

|-------------------------------------------------|
|-------------------------------------------------|
|--------5--4------4-----------2--4-------4-------|
|--2-----5--4--4---4------2----2--4--4----4-------|
|--2-----3--2--2-222------2----0--2--2--222-------|
|--2----------------------2-----------------------|
                 ***                    ***

|-------------------------------------------------|
|-------------------------------------------------|
|--------5--4------4------2-----------------------|
|--2-----5--4--4---4------2------3--3-------------|
|--2-----3--2--2-222------0------3--3-------------|
|--2-----------------------------3--3--333--------|
                 ***                   ***

1:17
|-------------------------------------------------|
|-------------------------------------------------|
|--------------------------------------5----------|
|--2----5------2---1-----2---5----2----5---1------|  x2
|--2----5------2---1-----2---5----2----3---1------|
|--2----5------2---1-----2---5----2--------1------|


Verse 2
1:30

|-------------------------------------------------|
|-------------------------------------------------|
|------Nothing is played during-------------------|
|----------this part of the verse-----------------|
|-------------------------------------------------|
|-------------------------------------------------|

1:44
|-------------------------------------------------|
|-------------------------------------------------|
|-------------------------------------------------|
|--2-2-2------------------2-2-2-------------------|
|--2-2-2-----55-----------2-2-2-----11------------|
|--2-2-2--55555----55-----2-2-2--11111-----1-1----|
   * * *  *****    **     * * *  *****     * *
                                                     x2
|-------------------------------------------------|
|-------------------------------------------------|
|-------------------------------------------------|
|--2-2-2------------------2-2-2-----55------------|
|--2-2-2-----55-----------2-2-2--33333------1-----|
|--2-2-2--55555----55-----2-2-2-------------1-----|
   * * *  *****    **     * * *  *****      *


Chorus
2:02

|-------------------------------------------------|
|-------------------------------------------------|
|--------5--4------4-----------2--4-------4-------|
|--2-----5--4--4---4------2----2--4--4----4-------|
|--2-----3--2--2-222------2----0--2--2--222-------|
|--2----------------------2-----------------------|
                 ***                    ***
                                                    x2
|-------------------------------------------------|
|-------------------------------------------------|
|--------5--4------4------2-----------------------|
|--2-----5--4--4---4------2------3--3-------------|
|--2-----3--2--2-222------0------3--3-------------|
|--2-----------------------------3--3--333--------|
                 ***                   ***

2:29
|-------------------------------------------------|
|-------------------------------------------------|
|--------------------------------------5----------|
|--2----5------2---1-----2---5----2----5---1------|  x2
|--2----5------2---1-----2---5----2----3---1------|
|--2----5------2---1-----2---5----2--------1------|


Chorus
3:11

|-------------------------------------------------|
|-------------------------------------------------|
|--------5--4------4-----------2--4-------4-------|
|--2-----5--4--4---4------2----2--4--4----4-------|
|--2-----3--2--2-222------2----0--2--2--222-------|
|--2----------------------2-----------------------|
                 ***                    ***
                                                    x2
|-------------------------------------------------|
|-------------------------------------------------|
|--------5--4------4------2-----------------------|
|--2-----5--4--4---4------2------3--3-------------|
|--2-----3--2--2-222------0------3--3-------------|
|--2-----------------------------3--3--333--------|
                 ***                   ***


|-------------------------------------------------|
|-------------------------------------------------|
|--------5--4------4-----------2--4-------4-------|
|--2-----5--4--4---4------2----2--4--4----4-------|
|--2-----3--2--2-222------2----0--2--2--222-------|
|--2----------------------2-----------------------|
                 ***                    ***
                                                   
|-------------------------------------------------|
|-------------------------------------------------|
|--------5--4------4------2-----------------------|
|--2-----5--4--4---4------2------2--2-------------|
|--2-----3--2--2-222------0------2--2-------------|
|--2-----------------------------2--2--222--------|
                 ***                   ***




===========================================================


                       
Track 6                Little Angel

===========================================================







Drop C Tuning (CGCFAD)



* = Palm Mute

@ = Pinched harmonic

x = muted



Intro/Main Riff

0:24



|-------------------------------------------|

|-------------------------------------------|

|-------------------------------------------|
|--5---5----------0---1---1----------4------| 

|--5---5--5-555---0---1---1--1-111---4------|

|--5---5--5-555---0---1---1--1-111---4------|

            **                 **  
          
                                                x4

|-------------------------------------------|

|-------------------------------------------|

|-------------------------------------------|

|--5---5----------0---1---1-----------------| 

|--5---5--5-555---0---1---1--1-111-444------|

|--5---5--5-555---0---1---1--1-111-444------|

            **                 **  **




Verse 1

0:43



|-------------------------------------------------|

|-------------------------------------------------|

|--------Nothing is played during-----------------|

|-------------------------------------------------|

|------------this part of the verse---------------|

|-------------------------------------------------|




1:01


|-------------------------------------------------|

|-------------------------------------------------|
|-------------------------------------------------|

|--5--5------------5--0--1--1------------1--4-----| x4

|--5--5------------5--0--1--1------------1--4-----|

|--5--5--5-5-5-5-5-5--0--1--1--1-1-1-1-1-1--4-----|

         * * * * *             * * * * * 





Prechorus

1:20



|--------------------------------------------------|
|--------------------------------------------------|

|--------------------------------------------------|

|--5--5-555-555-555--5--7--7-777-777-777--7--------|

|--3--3-333-333-333--3--5--5-555-555-555--5--------|

|--------------------------------------------------|

        **  **  **           **  **  ** 




|--------------------------------------------------|

|--------------------------------------------------|

|--------------------------------------------------|

|--8--8-888-888-888--8--10-10-101010-101010-101010-|

|--6--6-666-666-666--6--8--8--8-8-8--8-8-8--8-8-8--|

|--------------------------------------------------|

        **  **  **            * *    * *    * *  




Chorus/Main Riff

1:29



|-------------------------------------------|

|-------------------------------------------|

|-------------------------------------------|

|--5---5----------0---1---1----------4------| 
|--5---5--5-555---0---1---1--1-111---4------|

|--5---5--5-555---0---1---1--1-111---4------|

            **                 **
  
                                                x4

|-------------------------------------------|

|-------------------------------------------|

|-------------------------------------------|

|--5---5----------0---1---1-----------------| 
|--5---5--5-555---0---1---1--1-111-444------|

|--5---5--5-555---0---1---1--1-111-444------|

            **                 **  **




Verse 2

1:48



|-------------------------------------------------|

|-------------------------------------------------|

|--------Nothing is played during-----------------|

|-------------------------------------------------|

|------------this part of the verse---------------|

|-------------------------------------------------|




2:06


|-------------------------------------------------|

|-------------------------------------------------|

|-------------------------------------------------|

|--5--5------------5--0--1--1------------1--4-----| x4

|--5--5------------5--0--1--1------------1--4-----|

|--5--5--5-5-5-5-5-5--0--1--1--1-1-1-1-1-1--4-----|

         * * * * *             * * * * * 



Prechorus

2:25



|--------------------------------------------------|

|--------------------------------------------------|

|--------------------------------------------------|

|--5--5-555-555-555--5--7--7-777-777-777--7--------|

|--3--3-333-333-333--3--5--5-555-555-555--5--------|

|--------------------------------------------------|

        **  **  **           **  **  ** 




|--------------------------------------------------|

|--------------------------------------------------|

|--------------------------------------------------|

|--8--8-888-888-888--8--10-10-101010-101010-101010-|

|--6--6-666-666-666--6--8--8--8-8-8--8-8-8--8-8-8--|

|--------------------------------------------------|

        **  **  **            * *    * *    * * 




Chorus/Main Riff

2:34



|-------------------------------------------|
|-------------------------------------------|

|-------------------------------------------|

|--5---5----------0---1---1----------4------| 

|--5---5--5-555---0---1---1--1-111---4------|

|--5---5--5-555---0---1---1--1-111---4------|

            **                 ** 
 
                                                x4

|-------------------------------------------|

|-------------------------------------------|

|-------------------------------------------|

|--5---5----------0---1---1-----------------| 

|--5---5--5-555---0---1---1--1-111-444------|

|--5---5--5-555---0---1---1--1-111-444------|

            **                 **  **




Bridge


2:53


|-------------------------------------------|

|-------------------------------------------|

|--------Nothing is played during-----------|

|-------------------------------------------|

|------------this part----------------------|

|-------------------------------------------|






Chorus/Main Riff

3:21



|-------------------------------------------|
|-------------------------------------------|

|-------------------------------------------|

|--5---5----------0---1---1----------4------| 

|--5---5--5-555---0---1---1--1-111---4------|

|--5---5--5-555---0---1---1--1-111---4------|

            **                 **  
          
                                               x4

|-------------------------------------------|

|-------------------------------------------|

|-------------------------------------------|

|--5---5----------0---1---1-----------------| 

|--5---5--5-555---0---1---1--1-111-444------|

|--5---5--5-555---0---1---1--1-111-444------|

            **                 **  **






===========================================================


                       
Track 7            The Revolution Exodus

===========================================================




Drop C Tuning (CGCFAD)


* = Palm Mute
@ = Pinched harmonic
x = muted

Intro/Main Riff

0:16

|--------------------------------------------------|
|--------------------------------------------------|
|--------------------------------------------------|
|--------------------------------------------------|
|--------------------------------------------------|
|--00000--00000--000--------00000--00000--000------|
   *****  *****  ***        *****  *****  ***

|--------------------------------------------------|
|--------------------------------------------------|
|--------------------------------------------------|
|--------------------------------------------------|
|--------------------------------------------------|
|--99999-99999-999--88888-88888-888----------------|
   ***** ***** ***  ***** ***** ***

|--------------------------------------------------|
|--------------------------------------------------|
|--------------------------------------------------|
|------0------0----0------------0------0----0------|
|------0------0----0------------0------0----0------|
|--00000--00000--000--------00000--00000--000------|
   ****   ****   **         ****   ****   **

|--------------------------------------------------|
|--------------------------------------------------|
|--------------------------------------------------|
|------9-----9---9----------8-----8---8------------|
|------9-----9---9----------8-----8---8------------|
|--99999-99999-999------88888-88888-888------------|
   ****  ****  **       ****  ****  ** 



Chorus Riff
0:29

|-------------------------------------------|
|-------------------------------------------|
|-------------------------------------------|
|---0-------7---6----1----1-3-1-------------|
|---0-------7---6----1----1-3-1-------------|
|---0-------7---6----1----1-3-1-------------|
                          * * 
                                              x2
|-------------------------------------------|
|-------------------------------------------|
|-------------------------------------------|
|---0-------7---10---6---6-7-6--------------|
|---0-------7---10---6---6-7-6--------------|
|---0-------7---10---6---6-7-6--------------|
                         * *

Verse 1
0:43

|-------------------------------------------|
|-------------------------------------------|
|-------------------------------------------|
|-------------------------------------------|
|---0-0-0--7-7-7--6-6-6--1-1-1--1-3-1-------|
|---0-0-0--7-7-7--6-6-6--1-1-1--1-3-1-------|
    * * *  * * *  * * *  * * *  * * *
                                               x2
|-------------------------------------------|
|-------------------------------------------|
|-------------------------------------------|
|-------------------------------------------|
|---0-0-0--7-7-7--10-10-10--6-6-6--6-7-6----|
|---0-0-0--7-7-7--10-10-10--6-6-6--6-7-6----|
    * * *  * * *  *  *  *   * * *  * * *

0:56
|-------------------------------------------|
|-------------------------------------------|
|-------------------------------------------|
|-------------------------------------------|
|---0-0-0--7-7-7--6-6-6--1-1-1--1-3-1-------|
|---0-0-0--7-7-7--6-6-6--1-1-1--1-3-1-------|
      * *    * *    * *    * *
                                               x2          
|-------------------------------------------|
|-------------------------------------------|
|-------------------------------------------|
|-------------------------------------------|
|---0-0-0--7-7-7--10-10-10--6-6-6--6-7-6----|
|---0-0-0--7-7-7--10-10-10--6-6-6--6-7-6----|
      * *    * *     *  *     * * 

Chorus Riff
1:15

|-------------------------------------------|
|-------------------------------------------|
|-------------------------------------------|
|---0-------7---6----1----1-3-1-------------|
|---0-------7---6----1----1-3-1-------------|
|---0-------7---6----1----1-3-1-------------|
                          * * 
                                              x2
|-------------------------------------------|
|-------------------------------------------|
|-------------------------------------------|
|---0-------7---10---6---6-7-6--------------|
|---0-------7---10---6---6-7-6--------------|
|---0-------7---10---6---6-7-6--------------|
                         * *

Verse 2
1:29

|-------------------------------------------|
|-------------------------------------------|
|-------------------------------------------|
|-------------------------------------------|
|---0-0-0--7-7-7--6-6-6--1-1-1--1-3-1-------|
|---0-0-0--7-7-7--6-6-6--1-1-1--1-3-1-------|
    * * *  * * *  * * *  * * *  * * *
                                              x2
|-------------------------------------------|
|-------------------------------------------|
|-------------------------------------------|
|-------------------------------------------|
|---0-0-0--7-7-7--10-10-10--6-6-6--6-7-6----|
|---0-0-0--7-7-7--10-10-10--6-6-6--6-7-6----|
    * * *  * * *  *  *  *   * * *  * * *

0:56
|-------------------------------------------|
|-------------------------------------------|
|-------------------------------------------|
|-------------------------------------------|
|---0-0-0--7-7-7--6-6-6--1-1-1--1-3-1-------|
|---0-0-0--7-7-7--6-6-6--1-1-1--1-3-1-------|
      * *    * *    * *    * *
                                               x2          
|-------------------------------------------|
|-------------------------------------------|
|-------------------------------------------|
|-------------------------------------------|
|---0-0-0--7-7-7--10-10-10--6-6-6--6-7-6----|
|---0-0-0--7-7-7--10-10-10--6-6-6--6-7-6----|
      * *    * *     *  *     * * 


Chorus Riff  (preceded by a pick scratch)
2:02

|-------------------------------------------|
|-------------------------------------------|
|-------------------------------------------|
|---0-------7---6----1----1-3-1-------------|
|---0-------7---6----1----1-3-1-------------|
|---0-------7---6----1----1-3-1-------------|
                          * * 
                                              x2
|-------------------------------------------|
|-------------------------------------------|
|-------------------------------------------|
|---0-------7---10---6---6-7-6--------------|
|---0-------7---10---6---6-7-6--------------|
|---0-------7---10---6---6-7-6--------------|
                         * *


Bridge
2:15

|-------------------------------------------|
|-------------------------------------------|
|-------------------------------------------|
|-------------------------------------------| x8
|--0-0--0--0-2-0-2/3--3--0-2/3--------------|
|--0-0--0--0-2-0-2/3--3--0-2/3--------------|


2:42
|-------------------------------------------|
|-------------------------------------------|
|-------------------------------------------|
|--8-8--8--8-8-8--8-8--8--8-8-8-------------|
|--8-8--8--8-8-8--8-8--8--8-8-8-------------|
|--8-8--8--8-8-8--8-8--8--8-8-8-------------|
           * * *          * * *

|-------------------------------------------|
|-------------------------------------------|
|-------------------------------------------|
|--0-0--0--0-2-0--2/3--0--2/3---------------|
|--0-0--0--0-2-0--2/3--0--2/3---------------|
|--0-0--0--0-2-0--2/3--0--2/3---------------|
           * * *   

|-------------------------------------------|
|-------------------------------------------|
|-------------------------------------------|
|--5-5--5--5-5-5--5-5--5--7-----------------|
|--5-5--5--5-5-5--5-5--5--7-----------------|
|--5-5--5--5-5-5--5-5--5--7-----------------|
           * * *          

3:06

|-----------------------|
|-----------------------|
|-----------------------|
|----0///\\//\\\--------|
|----0///\\//\\\--------|
|----0///\\//\\\--------|


Chorus Riff
3:08

|-------------------------------------------|
|-------------------------------------------|
|-------------------------------------------|
|---0-------7---6----1----1-3-1-------------|
|---0-------7---6----1----1-3-1-------------|
|---0-------7---6----1----1-3-1-------------|
                          * * 
                                              x4
|-------------------------------------------|
|-------------------------------------------|
|-------------------------------------------|
|---0-------7---10---6---6-7-6--------------|
|---0-------7---10---6---6-7-6--------------|
|---0-------7---10---6---6-7-6--------------|
                         * *


Lead over Chorus after first 2 repetitions, 
repeat with chorus till the end

|-----------------------|
|-----------------------|
|-----7@~~~---8@~~------|
|-----------------------|
|-----------------------|
|-----------------------|


3:35

|----------------------------------------------|
|----------------------------------------------|
|--7----8~---7-----5----7----8~---7------------|
|-----7----------7----------7--------7--5--7---|
|----------------------------------------------|
|----------------------------------------------|





===========================================================

Track 8                   Damn Me

===========================================================


Drop C Tuning (CGCFAD)

* = Palm Mute
@ = Pinched harmonic
x = muted

Intro
0:16

|-------------------------------------------------------|
|-------------------------------------------------------|
|-------------------------------------------------------|
|-------2---2-------5-----------2---2--------5----------|
|-------2---2-------5-----------2---2--------3----------|
|-------2---2--2222-5-----------2---2--2222-------------|
               ****                    ****
                                                             x2
|-------------------------------------------------------|
|-------------------------------------------------------|
|-------------------------------------------------------|
|-------2---2-------5-----------2---2--------1----------|
|-------2---2-------5-----------2---2--------1----------|
|-------2---2--2222-5-----------2---2--2222--1----------|
               ****                    ****


Verse 1
0:30

|-------------------------------------------------------|
|-------------------------------------------------------|
|----------Nothing is played during---------------------|
|---------------the verse-------------------------------|
|-------------------------------------------------------|
|-------------------------------------------------------|


Pre-chorus
0:43

|-------------------------------------------------------|
|-------------------------------------------------------|
|-------------------------------------------------------|
|---10-------9----5----9-------9------------------------|
|---10----7--9----5----9---10--9--9--9------------------|
|---10----7--9----5----9---10--9--9--9------------------|


Chorus
0:50
|------------------------------------------------|
|------------------------------------------------|
|------------------------------------------------|
|---2--------5---2------2------5-----2----1------|
|---2--------3---0------2------3-----0----1------|
|---2-------------------2-----------------1------|

|------------------------------------------------|
|------------------------------------------------|
|------------------------------------------------|
|---2--------5---2----2--4--5---8----------------|
|---2--------3---0----0--2--3---6----------------|
|---2--------------------------------------------|

Intro Riff
1:03

|-------------------------------------------------------|
|-------------------------------------------------------|
|-------------------------------------------------------|
|-------2---2-------5-----------2---2--------5----------|
|-------2---2-------5-----------2---2--------3----------|
|-------2---2--2222-5-----------2---2--2222-------------|
               ****                    ****
                                                             x2
|-------------------------------------------------------|
|-------------------------------------------------------|
|-------------------------------------------------------|
|-------2---2-------5-----------2---2--------1----------|
|-------2---2-------5-----------2---2--------1----------|
|-------2---2--2222-5-----------2---2--2222--1----------|
               ****                    ****


Verse 2
1:17

|-------------------------------------------------------|
|-------------------------------------------------------|
|----------Nothing is played during---------------------|
|---------------the verse-------------------------------|
|-------------------------------------------------------|
|-------------------------------------------------------|

Pre-chorus
1:30

|-------------------------------------------------------|
|-------------------------------------------------------|
|-------------------------------------------------------|
|---10-------9----5----9-------9------------------------|
|---10----7--9----5----9---10--9--9--9------------------|
|---10----7--9----5----9---10--9--9--9------------------|


Chorus
1:37

|------------------------------------------------|
|------------------------------------------------|
|------------------------------------------------|
|---2--------5---2------2------5-----2----1------|
|---2--------3---0------2------3-----0----1------|
|---2-------------------2-----------------1------|
                                                     x2
|------------------------------------------------|
|------------------------------------------------|
|------------------------------------------------|
|---2--------5---2----2--4--5---8----------------|
|---2--------3---0----0--2--3---6----------------|
|---2--------------------------------------------|


Intro Riff
2:04

|-------------------------------------------------------|
|-------------------------------------------------------|
|-------------------------------------------------------|
|-------2---2-------5-----------2---2--------5----------|
|-------2---2-------5-----------2---2--------3----------|
|-------2---2--2222-5-----------2---2--2222-------------|
               ****                    ****
                                                             x2
|-------------------------------------------------------|
|-------------------------------------------------------|
|-------------------------------------------------------|
|-------2---2-------5-----------2---2--------1----------|
|-------2---2-------5-----------2---2--------1----------|
|-------2---2--2222-5-----------2---2--2222--1----------|
               ****                    ****

Bridge
2:17

Only keyboard


Pre-chorus
2:44

|-------------------------------------------------------|
|-------------------------------------------------------|
|-------------------------------------------------------|
|---10-------9----5----9-------9------------------------|
|---10----7--9----5----9---10--9--9--9------------------|
|---10----7--9----5----9---10--9--9--9------------------|


Chorus
2:51

|------------------------------------------------|
|------------------------------------------------|
|------------------------------------------------|
|---2--------5---2------2------5-----2----1------|
|---2--------3---0------2------3-----0----1------|
|---2-------------------2-----------------1------|
                                                     x2
|------------------------------------------------|
|------------------------------------------------|
|------------------------------------------------|
|---2--------5---2----2--4--5---8----------------|
|---2--------3---0----0--2--3---6----------------|
|---2--------------------------------------------|


3:17
|-------------------------------------------------------|
|-------------------------------------------------------|
|-------------------------------------------------------|
|-------2---2-------5-----------2---2--------5----------|
|-------2---2-------5-----------2---2--------3----------|
|-------2---2--2222-5-----------2---2--2222-------------|
               ****                    ****

|------------------------------------------|
|------------------------------------------|
|------------------------------------------|
|-------2---2-------5-----------2----------|
|-------2---2-------5-----------2----------|
|-------2---2--2222-5-----------2----------|
               ****        




===========================================================

Track 9                The Rape

===========================================================


Drop C Tuning (CGCFAD)

* = Palm Mute
@ = Pinched harmonic
x = muted




Intro
0:00/0:01
|-------------------------------------------------------|
|-------------------------------------------------------|
|-------------------------------------------------------|
|---5/7---6\5-----5/7---6\5---8888----------------------|
|---3/5---6\5-----3/5---6\5---6666----------------------|
|---------6\5-----------6\5-----------------------------|
                                                          x2
|-------------------------------------------------------|
|-------------------------------------------------------|
|-------------------------------------------------------|
|---5/7---6\5-----5/7---6\5---3333----------------------|
|---3/5---6\5-----3/5---6\5---3333----------------------|
|---------6\5-----------6\5---3333----------------------|


Repeat Intro
0:21


Verse 1
0:31

|-------------------------------------------------------|
|-------------------------------------------------------|
|-------------------------------------------------------|
|----00----------00----------00----------00-------------|
|----00----------00----------00----------00-------------|
|----00----------00----------00----------00-------------|


Pre-chorus
0:50
|-------------------------------------------------------|
|-------------------------------------------------------|
|-------------------------------------------------------|
|-----------5-----7-----5----7--------------------------|
|---//\\\---5-----7-----5----7--------------------------|
|---//\\\---5-----7-----5----7--------------------------|


Chorus
1:01

|-------------------------------------------------------|
|-------------------------------------------------------|
|-------------------------------------------------------|
|-------2/3---------2/3---------2/3---------2/3---------| x4
|--0-00-2/3--0--0-0-2/3-0--0-00-2/3--0--0-0-2/3----3*---|
|--0-00-2/3--0--0-0-2/3-0--0-00-2/3--0--0-0-2/3---------|

Intro Riff
1:21

|-------------------------------------------------------|
|-------------------------------------------------------|
|-------------------------------------------------------|
|---5/7---6\5-----5/7---6\5---8888----------------------|
|---3/5---6\5-----3/5---6\5---6666----------------------|
|---------6\5-----------6\5-----------------------------|
                                                          x2
|-------------------------------------------------------|
|-------------------------------------------------------|
|-------------------------------------------------------|
|---5/7---6\5-----5/7---6\5---3333----------------------|
|---3/5---6\5-----3/5---6\5---3333----------------------|
|---------6\5-----------6\5---3333----------------------|


Verse 2
1:32

|-------------------------------------------------------|
|-------------------------------------------------------|
|-------------------------------------------------------|
|----00----------00----------00----------00-------------|
|----00----------00----------00----------00-------------|
|----00----------00----------00----------00-------------|


Pre-chorus
1:51
|-------------------------------------------------------|
|-------------------------------------------------------|
|-------------------------------------------------------|
|-----------5-----7-----5----7--------------------------|
|---//\\\---5-----7-----5----7--------------------------|
|---//\\\---5-----7-----5----7--------------------------|


Chorus
2:02

|-------------------------------------------------------|
|-------------------------------------------------------|
|-------------------------------------------------------|
|-------2/3---------2/3---------2/3---------2/3---------| x4
|--0-00-2/3--0--0-0-2/3-0--0-00-2/3--0--0-0-2/3----3*---|
|--0-00-2/3--0--0-0-2/3-0--0-00-2/3--0--0-0-2/3---------|


Bridge
2:22

|-------------------------------------------------------|
|-------------------------------------------------------|
|-------------------------------------------------------|
|-------------------0---7---------11--11--11-11---------|
|--0-00-2/3--0--0-0-0---7-----7---11--11--11-11---------|
|--0-00-2/3--0--0-0-0---7-77--7---11--11--11-11---------|
                                                           x2
|-------------------------------------------------------|
|-------------------------------------------------------|
|-------------------------------------------------------|
|-------------------0---7---------5--5--5-5------3------|
|--0-00-2/3--0--0-0-0---7-----7---5--5--5-5------3------|
|--0-00-2/3--0--0-0-0---7-77--7---5--5--5-5------3------|


Verse 3
2:42

|-----------------------------------------------------|
|-----------------------------------------------------|
|-----------------------------------------------------|
|----00----------00----------11-----------------------|
|----00----------00----------11-----------------------|
|----00----------00----------11-----------------------|
                             ^
                            This is one strike at the 11
                          Not 2 hits on the 1.


Pre-chorus
2:52
|--------------------------------------------------|
|--------------------------------------------------|
|--------------------------------------------------|
|------5-----7-----5----7--------------------------|
|------5-----7-----5----7--------------------------|
|------5-----7-----5----7--------------------------|


Chorus
3:02

|-------------------------------------------------------|
|-------------------------------------------------------|
|-------------------------------------------------------|
|-\------2/3---------2/3---------2/3---------2/3--------| x4
|-\-0-00-2/3--0--0-0-2/3-0--0-00-2/3--0--0-0-2/3---3*---|
|-\-0-00-2/3--0--0-0-2/3-0--0-00-2/3--0--0-0-2/3--------|


Intro Riff
3:22

|-------------------------------------------------------|
|-------------------------------------------------------|
|-------------------------------------------------------|
|---5/7---6\5-----5/7---6\5---8888----------------------|
|---3/5---6\5-----3/5---6\5---6666----------------------|
|---------6\5-----------6\5-----------------------------|
                                                          x4
|-------------------------------------------------------|
|-------------------------------------------------------|
|-------------------------------------------------------|
|---5/7---6\5-----5/7---6\5---3333----------------------|
|---3/5---6\5-----3/5---6\5---3333----------------------|
|---------6\5-----------6\5---3333----------------------|


End the song with an open C5, like so:
|------------------------------|
|------------------------------|
|------------------------------|
|---0--------------------------|
|---0--------------------------|
|---0--------------------------|




===========================================================

Track 10                  Genocide

===========================================================


Drop C Tuning (CGCFAD)

* = Palm Mute
@ = Pinched harmonic
x = muted

Intro
0:01

|----------------------------------------------------|
|----------------------------------------------------|
|----------------------------------------------------|
|----------------------------------------------------|
|---3/5-5--33/5-5--33/5-------33/5-5---33/5-5--333---|
|-----------------------6\5--------------------------|
           *       *          *        *       ***


Main Riff
0:08


Guitar I

Played with an effect maybe flanger and tremolo

|-----10---5--4-----------|
|----------------4--3-----|
|-------------------------|
|-------------------------|  x4
|-------------------------|
|-------------------------|


Guitar II

|------------------------------|
|------------------------------|
|------------------------------|
|---5/7-7--55/7-7--55/7-3/5----|
|---3/5-5--33/5-5--33/5-1/3----|
|------------------------------|
           *       *
                                    x2
|------------------------------|
|------------------------------|
|------------------------------|
|---5/7-7--55/7-7--55/7-6\5----|
|---3/5-5--33/5-5--33/5-6\5----|
|-----------------------6\5----|
           *       *

Verse 1
0:22

|----------------------------|
|----------------------------|
|----------------------------|
|----------------------------|
|---3/5-5--33/5-5--33-5-6-5--|
|----------------------------|
           *       ** * * *
                                x4
|----------------------------|
|----------------------------|
|----------------------------|
|----------------------------|
|---3/5-5--33/5-5--33/5------|
|-----------------------6\5--|
           *       *

Pre-chorus
0:49

|-------------------------------|
|-------------------------------|
|-------------------------------|
|--3-3--3---3---33-3--3---3-----|
|--1-1--1---1---11-1--1---1-----|
|-------------------------------|

|-------------------------------|
|-------------------------------|
|-------------------------------|
|-------------------------------|
|--0-0--0---0---00-0--0---0-----|
|--0-0--0---0---00-0--0---0-----|

|-------------------------------|
|-------------------------------|
|-------------------------------|
|--3-3--3---3---33-3--3---3-----|
|--1-1--1---1---11-1--1---1-----|
|-------------------------------|

|-------------------------------|
|-------------------------------|
|-------------------------------|
|--5-5--5---5---7---------------|
|--5-5--5---5---7---------------|
|--5-5--5---5---7---------------|


Chorus/Main Riff
1:03

Guitar I

Played with an effect maybe flanger and tremolo

|-----10---5--4-----------|
|----------------4--3-----|
|-------------------------|
|-------------------------|  x4
|-------------------------|
|-------------------------|


Guitar II

|------------------------------|
|------------------------------|
|------------------------------|
|---5/7-7--55/7-7--55/7-3/5----|
|---3/5-5--33/5-5--33/5-1/3----|
|------------------------------|
           *       *
                                    x2
|------------------------------|
|------------------------------|
|------------------------------|
|---5/7-7--55/7-7--55/7-6\5----|
|---3/5-5--33/5-5--33/5-6\5----|
|-----------------------6\5----|
           *       *

Verse 2
1:17

|----------------------------|
|----------------------------|
|----------------------------|
|----------------------------|
|---3/5-5--33/5-5--33-5-6-5--|
|----------------------------|
           *       ** * * *
                                x4
|----------------------------|
|----------------------------|
|----------------------------|
|----------------------------|
|---3/5-5--33/5-5--33/5------|
|-----------------------6\5--|
           *       *


Pre-chorus
1:44

|-------------------------------|
|-------------------------------|
|-------------------------------|
|--3-3--3---3---33-3--3---3-----|
|--1-1--1---1---11-1--1---1-----|
|-------------------------------|

|-------------------------------|
|-------------------------------|
|-------------------------------|
|-------------------------------|
|--0-0--0---0---00-0--0---0-----|
|--0-0--0---0---00-0--0---0-----|

|-------------------------------|
|-------------------------------|
|-------------------------------|
|--3-3--3---3---33-3--3---3-----|
|--1-1--1---1---11-1--1---1-----|
|-------------------------------|

|-------------------------------|
|-------------------------------|
|-------------------------------|
|--5-5--5---5---7---------------|
|--5-5--5---5---7---------------|
|--5-5--5---5---7---------------|


Chorus
1:58


Guitar I

Played with an effect maybe flanger and tremolo

|-----10---5--4-----------|
|----------------4--3-----|
|-------------------------|
|-------------------------|  x4
|-------------------------|
|-------------------------|


Guitar II plays this

|------------------------------|
|------------------------------|
|------------------------------|
|---5/7-7--55/7-7--55/7-3/5----|
|---3/5-5--33/5-5--33/5-1/3----|
|------------------------------|
           *       *
                                    x2
|------------------------------|
|------------------------------|
|------------------------------|
|---5/7-7--55/7-7--55/7-6\5----|
|---3/5-5--33/5-5--33/5-6\5----|
|-----------------------6\5----|
           *       *


Bridge
2:11

Played with what sounds like a tremolo and phase shifter maybe

|---10----5---4---5--4---8---10---5--4-----------|
|---------------------------------------4--3-----|
|------------------------------------------------|
|------------------------------------------------|  x2
|------------------------------------------------|
|------------------------------------------------|



Pre-solo
2:25

|--------------------------------------------|
|--------------------------------------------|
|--------------------------------------------|
|---0-0---0-0---0-0--0--0--3--0--3-/6--------|
|---0-0---0-0---0-0--0--0--3--0--3-/6--------|
|---0-0---0-0---0-0--0--0--3--0--3-/6--------|
                                                   x2
|--------------------------------------------|
|--------------------------------------------|
|--------------------------------------------|
|---0-0---0-0---0-0--0--0000-6---------------|
|---0-0---0-0---0-0--0--0000-6---------------|
|---0-0---0-0---0-0--0--0000-6---------------|
                        **** ^
                             ^
                        Guitar I plays a pinch
                        harmonic at said location
                        and Guitar II plays the chord


Pre-chorus Revisited
2:39

|--------------------------------------------|
|--------------------------------------------|
|--------------------------------------------|
|--3-------0--------3-------5------7---------|
|--1-------0--------1-------5------7---------|
|----------0----------------5------7---------|

These chords are held out, and played lightly



Solo 
2:52

|----------------------------------------------------|
|--10---------12----12b13-12b13----------------------|
|--10------10-12-10-12b13-12b13--10------------------|
|------12---------------------------12--10--12-------|
|----------------------------------------------------|
|----------------------------------------------------|

2:56
|----------------------------------------------------|
|--10---------12----12b13-10h13p10h12p10-------------|
|--10------10-12-10-12b13----------------12p10-12~---|
|------12--------------------------------------------|
|----------------------------------------------------|
|----------------------------------------------------|

3:00
|----------------------------------------------------|
|--10---------12----12b13-12b13----------------------|
|--10------10-12-10-12b13-12b13--10------------------|
|------12---------------------------12--10--12-------|
|----------------------------------------------------|
|----------------------------------------------------|

3:03
|----------------------------------------------------|
|---/10h13p10h12p10----10h12p10----------------------|
|-------------------12----------12p10----------10~---|
|-------------------------------------12p10h12-------|
|----------------------------------------------------|
|----------------------------------------------------|


Solo Rhythm
2:52

|--------------------------------------------|
|--------------------------------------------|
|--------------------------------------------|
|---0-0---0-0---0-0--0--0--3--0--3-/6--------|
|---0-0---0-0---0-0--0--0--3--0--3-/6--------|
|---0-0---0-0---0-0--0--0--3--0--3-/6--------|

|--------------------------------------------|
|--------------------------------------------|
|--------------------------------------------|
|---0-0---0-0---0-0--0--0000-6---------------|
|---0-0---0-0---0-0--0--0000-6---------------|
|---0-0---0-0---0-0--0--0000-6---------------|
                        **** ^
                             ^
                        Guitar I plays a pinch
                        harmonic at said location
                        and Guitar II plays the chord

|--------------------------------------------|
|--------------------------------------------|
|--------------------------------------------|
|---0-0---0-0---0-0--0--0--3--0--3-/6--------|
|---0-0---0-0---0-0--0--0--3--0--3-/6--------|
|---0-0---0-0---0-0--0--0--3--0--3-/6--------|

|--------------------------------------------|
|--------------------------------------------|
|--------------------------------------------|
|---0-0---0-0---0-0--0-0---------------------|
|---0-0---0-0---0-0--0-0---------------------|
|---0-0---0-0---0-0--0-0---------------------|
                        

Chorus
3:06

Guitar I

Played with an effect maybe flanger and tremolo

|-----10---5--4-----------|
|----------------4--3-----|
|-------------------------|
|-------------------------|  x8
|-------------------------|
|-------------------------|


Guitar II plays this

|------------------------------|
|------------------------------|
|------------------------------|
|---5/7-7--55/7-7--55/7-3/5----|
|---3/5-5--33/5-5--33/5-1/3----|
|------------------------------|
           *       *
                                    x3
|------------------------------|
|------------------------------|
|------------------------------|
|---5/7-7--55/7-7--55/7-6\5----|
|---3/5-5--33/5-5--33/5-6\5----|
|-----------------------6\5----|
           *       *

On the last repetition of the chorus (for the close)
Play this:

|------------------------------|
|------------------------------|
|------------------------------|
|---5/7-7--55/7-7--55/7-3/5----|
|---3/5-5--33/5-5--33/5-1/3----|
|------------------------------|
           *       *

|------------------------------|
|------------------------------|
|------------------------------|
|---5/7-7--55/7-7--5--7\-------|
|---3/5-5--33/5-5--3--5\-------|
|---------------------0--------|
           *       *




===========================================================

Track 11                No Light

===========================================================

By:  Deathstars
Album: Synthetic Generation

Tabbed by: John Moores
mooresjw@email.uc.edu



Drop C Tuning (CGCFAD)

* = Palm Mute
@ = Pinched harmonic
x = muted




This song is mostly keyboards, so I'm not really sure there
is anything besides the chorus being played...

But as always the times of each section will be provided.




Intro - Keyboards
Verse 1
0:15

Nothing played


Chorus
0:35

Guitar I

|-------------------------------------------------|
|--------11---10h11--7------------11-----10-------|
|--7//12--------------------7//12-----------------|
|-------------------------------------------------|
|-------------------------------------------------|
|-------------------------------------------------|

|---------------------------11-11---11-11--11-----|
|--------11---10h11--7-------------------------8--|
|--7//12------------------12-----11------10-------|
|-------------------------------------------------|
|-------------------------------------------------|
|-------------------------------------------------|


Guitar II

|---------------------------------------------------|
|---------------------------------------------------|
|---------------------------------------------------|
|----5------------1-----------5---------3-----------|
|----5------------1-----------5---------3-----------|
|----5------------1-----------5---------3-----------|

|---------------------------------------------------|
|---------------------------------------------------|
|-----------------------------5---------------------|
|----5------------1-----------5------6---5----------|
|----5------------1-----------3------6---5----------|
|----5------------1------------------6---5----------|


Verse 2
1:06

Nothing Played


Chorus
1:26

Guitar I

|-------------------------------------------------|
|--------11---10h11--7------------11-----10-------|
|--7//12--------------------7//12-----------------|
|-------------------------------------------------|
|-------------------------------------------------|
|-------------------------------------------------|

|---------------------------11-11---11-11--11-----|
|--------11---10h11--7-------------------------8--|
|--7//12------------------12-----12------11-------|
|-------------------------------------------------|
|-------------------------------------------------|
|-------------------------------------------------|


Guitar II

|---------------------------------------------------|
|---------------------------------------------------|
|---------------------------------------------------|
|----5------------1-----------5---------3-----------|
|----5------------1-----------5---------3-----------|
|----5------------1-----------5---------3-----------|

|---------------------------------------------------|
|---------------------------------------------------|
|-----------------------------5---------------------|
|----5------------1-----------5------6---5----------|
|----5------------1-----------3------6---5----------|
|----5------------1------------------6---5----------|


1:46

Guitar I

|------------------------------------------------------|
|--------13---12h13--10--------13--12---h13--15\13-13--| < This string
|--9//14-----------------9//14---------------16\14-14--|  isnt required
|------------------------------------------------------|
|------------------------------------------------------|
|------------------------------------------------------|


Guitar II

|---------------------------------------------------|
|---------------------------------------------------|
|---------------------------------------------------|
|---7---------0-----------7---------5---------------|
|---7---------0-----------7---------5---------------|
|---7---------0-----------7---------5---------------|

|---------------------------------------------------|
|---------------------------------------------------|
|---------------------------------------------------|
|---7---------0-----------3-----6------7------------|
|---7---------0-----------3-----6------7------------|
|---7---------0-----------3-----6------7------------|




2:27

Guitar I

|-------------------------------------------------|
|--------11---10h11--7------------11-----10-------|
|--7//12--------------------7//12-----------------|
|-------------------------------------------------|
|-------------------------------------------------|
|-------------------------------------------------|

|---------------------------11-11---11-11--11-----|
|--------11---10h11--7-------------------------8--|
|--7//12------------------12-----12------11-------|
|-------------------------------------------------|
|-------------------------------------------------|
|-------------------------------------------------|


Guitar II

|---------------------------------------------------|
|---------------------------------------------------|
|---------------------------------------------------|
|----5------------1-----------5---------3-----------|
|----5------------1-----------5---------3-----------|
|----5------------1-----------5---------3-----------|

|---------------------------------------------------|
|---------------------------------------------------|
|-----------------------------5---------------------|
|----5------------1-----------5------6---5----------|
|----5------------1-----------3------6---5----------|
|----5------------1------------------6---5----------|



Chorus
2:46

The only reason this part sounds different
is that it's just the 2 guitars, no bass or
anything else

Guitar I

|-------------------------------------------------|
|--------11---10h11--7------------11-----10-------|
|--7//12--------------------7//12-----------------|
|-------------------------------------------------|
|-------------------------------------------------|
|-------------------------------------------------|

|---------------------------11-11---11-11--11-----|
|--------11---10h11--7-------------------------8--|
|--7//12------------------12-----12------11-------|
|-------------------------------------------------|
|-------------------------------------------------|
|-------------------------------------------------|


Guitar II

|---------------------------------------------------|
|---------------------------------------------------|
|---------------------------------------------------|
|----5------------1-----------5---------3-----------|
|----5------------1-----------5---------3-----------|
|----5------------1-----------5---------3-----------|

|---------------------------------------------------|
|---------------------------------------------------|
|-----------------------------5---------------------|
|----5------------1-----------5------6---5----------|
|----5------------1-----------3------6---5----------|
|----5------------1------------------6---5----------|





            
            
Suggest correction
Creating personal tab
Creating personal tab
You can edit any tab online and save it as your Personal.

You can edit, replace or remove any tab part or add personal notes – all changes will be seen only by you.

Personal tabs can be accessed anytime from any device, even offline.
Learn more »
Give kudos to tab author, rate the tab!
1 2 3 4 5
comments
print report bad tab
guest
You may want to rate the tab now too:
select rating
Wanna post a correction for this tab? Suggest correction