Oops, an error
Loading. Please wait.

Termination Bliss album tab

version 1
version 1

Album

Whole song

1,629 views 1 this week
2 commentsread comments
1 2 3 4 5
x 3
add to favorites
×
Save as Personal and add changes to this tab that will be seen only by you. Learn more ›
×
You can save this tab as Personal to edit and correct it or add notes. All changes will be seen only by you. Learn more »
launch autoscroll
font size
0
reset
how to read this tab
guitar tuner
edit
Autoscroll
slow
fast
+/-
esc
set tempo
stop
=============================================================================
                         Termination Bliss
                                Album

Hey, I finally figured out all the songs on the album, and tabbed them all 
out. All right in here, in one spot.  This took me a good amount of time, 
and effort, so comment and rate please. Thanks!!
=============================================================================
=============================================================================



=============================================================================

Track 1			Tongues

=============================================================================

By:  Deathstars
Album: Termination Bliss

Tabbed by: John Moores
mooresjw@email.uc.edu

Special Thanks to Joltt for tabbing it out, a good version, though it wasn't
completely correct by my ears, so here is my interpretation.  It was very
accurate, just some places it needed to be tweaked.

Drop C Tuning (CGCFAD)

* = Palm Mute
@ = Pinched harmonic
x = muted
~ = bend like vibrato



Intro.

0:07

|-------------------------------------------------------|
|-------------------------------------------------------|
|-------------------------------------------------------|
|-------------------------------------------------------|    x2
|---2--2-2--2--2-2----------2--2-2--2--2-2--------------|
|---2--2-2--2--2-2--3~------2--2-2--2--2-2--3~----------|
    *  * *  *  * *          *  * *  *  * *

0:17

|-------------------------------------------------------|
|-------------------------------------------------------|
|-------------------------------------------------------|
|---------------------------2--2-2-2--2--5--3-3--3-3----|    x2
|---2--2-2--2--0--0-0--0----0--0-0-0--0--3--3-3--3-3----|
|---2--2-2--2--0--0-0--0--------------------3-3--3-3----|
    *  * *  *  *  * *  *    *  * * *  *  *  * *  * *



Verse 1
0:28

|-------------------------------------------------------|
|-------------------------------------------------------|
|-----------Nothing is played during this---------------|
|--------------part of the verse------------------------|
|-------------------------------------------------------|
|-------------------------------------------------------|

0:37

|-------------------------------------------------------|
|-------------------------------------------------------|
|-------------------------------------------------------|
|-------------------------------------------------------|    x2
|------2--2-2--2--2--2-------------2--2-2--2--2--2------|
|------2--2-2--2--2--2-------------2--2-2--2--2--2------|
       *  * *  *  *  *             *  * *  *  *  *

Pre-chorus
0:47

|-------------------------------------------------------|
|-------------------------------------------------------|
|-------------------------------------------------------|
|-------------------------------------------------------|
|---2--2-2--2--0------5--5-5-5--5--7--------------------|
|---2--2-2--2--0------5--5-5-5--5--7--------------------|
    *  * *  *  *      *  * * *  *  *


|-------------------------------------------------------|
|-------------------------------------------------------|
|-------------------------------------------------------|
|---------------------2---4--5--4-----------------------|
|---2--2-2--2--0------0---2--3--2-----------------------|
|---2--2-2--2--0----------------------------------------|
    *  * *  *  * 


Chorus
0:57
                                                          _
|-------------------------------------------------------|  |
|-------------------------------------------------------|  |
|-------------------------------------------------------|  |
|---------------------------2--2-2-2--2--3--3-3--3-3----|  |
|---2--2-2--2--0--0-0--0----0--0-0-0--0--3--3-3--3-3----|  |
|---2--2-2--2--0--0-0--0-----------------3--3-3--3-3----|  |
    *  * *  *  *  * *  *    *  * * *  *  *  * *  * *       |
                                                           |> x2
|-------------------------------------------------------|  |
|-------------------------------------------------------|  |
|-------------------------------------------------------|  |
|---------------------------2--2-2-2--2---5-5--5-5------|  |
|---2--2-2--2--0--0-0--0----0--0-0-0--0---3-3--3-3------|  |
|---2--2-2--2--0--0-0--0--------------------------------|  |
    *  * *  *  *  * *  *    *  * * *  *                   _|


Intro Riff
1:17

|-------------------------------------------------------|
|-------------------------------------------------------|
|-------------------------------------------------------|
|-------------------------------------------------------|
|---2--2-2--2--2-2----------2--2-2--2--2-2--------------|
|---2--2-2--2--2-2--3~------2--2-2--2--2-2--3~----------|
    *  * *  *  * *          *  * *  *  * *

|-------------------------------------------------------|
|-------------------------------------------------------|
|-------------------------------------------------------|
|-------------------------------------------------------|
|---2--2-2--2--2-2----------2--2-2--2--2-2--------------|
|---2--2-2--2--2-2--3~------2--2-2--2--2-2--------------|
    *  * *  *  * *          *  * *  *  


Verse 2
1:27

|-------------------------------------------------------|
|-------------------------------------------------------|
|-----------Nothing is played during this---------------|
|--------------part of the verse------------------------|
|-------------------------------------------------------|
|-------------------------------------------------------|

1:37
|-------------------------------------------------------|
|-------------------------------------------------------|
|-------------------------------------------------------|
|-------------------------------------------------------|    x2
|------2--2-2--2--2--2-------------2--2-2--2--2--2------|
|------2--2-2--2--2--2-------------2--2-2--2--2--2------|
       *  * *  *  *  *             *  * *  *  *  *

Pre-chorus
1:47

|-------------------------------------------------------|
|-------------------------------------------------------|
|-------------------------------------------------------|
|-------------------------------------------------------|
|---2--2-2--2--0------5--5-5-5--5--7--------------------|
|---2--2-2--2--0------5--5-5-5--5--7--------------------|
    *  * *  *  *      *  * * *  *  *


|-------------------------------------------------------|
|-------------------------------------------------------|
|-------------------------------------------------------|
|---------------------2---4--5--4-----------------------|
|---2--2-2--2--0------0---2--3--2-----------------------|
|---2--2-2--2--0----------------------------------------|
    *  * *  *  * 

Chorus
1:57
                                                          _
|-------------------------------------------------------|  |
|-------------------------------------------------------|  |
|-------------------------------------------------------|  |
|---------------------------2--2-2-2--2--3--3-3--3-3----|  |
|---2--2-2--2--0--0-0--0----0--0-0-0--0--3--3-3--3-3----|  |
|---2--2-2--2--0--0-0--0--------------------3-3--3-3----|  |
    *  * *  *  *  * *  *    *  * * *  *  *  * *  * *       |
                                                           |> x2
|-------------------------------------------------------|  |
|-------------------------------------------------------|  |
|-------------------------------------------------------|  |
|---------------------------2--2-2-2--2---5-5--5-5------|  |
|---2--2-2--2--0--0-0--0----0--0-0-0--0---3-3--3-3------|  |
|---2--2-2--2--0--0-0--0--------------------------------|  |
    *  * *  *  *  * *  *    *  * * *  *                   _|


Bridge
2:17

|-------------------------------------------------------|
|-------------------------------------------------------|
|-------------------------------------------------------|
|--3-3---0-0---3-3---0-0----0---3-3---0-0---3-3----3--3-|
|--3-3---0-0---3-3---0-0--x-0---3-3---0-0---3-3--x-3--3-|
|--3-3---0-0---3-3---0-0--x-0---3-3---0-0---3-3--x-3--3-|


Pre-chorus
2:48

Play nothing this time, just the keyboard takes over here

2:55
|------------------------------------------|
|------------------------------------------|
|------------------------------------------|
|---------2---4--5--4----------------------|
|---------0---2--3--2----------------------|
|------------------------------------------|

Chorus
2:58
                                                          _
|-------------------------------------------------------|  |
|-------------------------------------------------------|  |
|-------------------------------------------------------|  |
|---------------------------2--2-2-2--2--3--3-3--3-3----|  |
|---2--2-2--2--0--0-0--0----0--0-0-0--0--3--3-3--3-3----|  |
|---2--2-2--2--0--0-0--0-----------------3--3-3--3-3----|  |
    *  * *  *  *  * *  *    *  * * *  *  *  * *  * *       |
                                                           |> x2
|-------------------------------------------------------|  |
|-------------------------------------------------------|  |
|-------------------------------------------------------|  |
|---------------------------2--2-2-2--2---5-5--5-5------|  |
|---2--2-2--2--0--0-0--0----0--0-0-0--0---3-3--3-3------|  |
|---2--2-2--2--0--0-0--0--------------------------------|  |
    *  * *  *  *  * *  *    *  * * *  *                   _|
                                            
                                             ^ Final time play 
                                               the palm muted 
                                               version

3:18

|-------------------------------------------------------|
|-------------------------------------------------------|
|-------------------------------------------------------|
|---2--2------0--0-------------2--2------0--0-----------|
|---2--2------0--0-------------2--2------0--0-----------|
|---2--2------0--0-------------2--2------0--0-----------|


Chorus
3:28

Once through




=============================================================================

Track 2  		Blitzkrieg

=============================================================================

By:  Deathstars
Album: Termination Bliss

Tabbed by: John Moores
mooresjw@email.uc.edu

Special Thanks to Cyanide7 for tabbing it out, a good version, though it wasn't
completely correct by my ears, so here is my interpretation. It was very
accurate, just some places it needed to be tweaked.

Drop C Tuning (CGCFAD)

* = Palm Mute
@ = Pinched harmonic
x = muted
~ = bend like vibrato

Intro
0:18

|-------------------------------------------------------------------------|
|-------------------------------------------------------------------------|
|-------------------------------------------------------------------------|
|---------3--0--3----------1--0-1------------3--0--3---------6--5-6-------| x2
|------0--3--0--3-------0--1--0-1---------0--3--0--3------0--6--5-6-------|
|---00-0--3--0--3----00-0--1--0-1------00-0--3--0--3---00-0--6--5-6-------|
    ** *             ** *              ** *            ** *



Verse 1
0:31

|-------------------------------------------------------------|
|-------------------------------------------------------------|
|-------------------------------------------------------------|
|------------3--0--3---------------------1--0-1---------------|
|---------0--3--0--3------------------0--1--0-1---------------|
|------00-0--3--0--3---------------00-0--1--0-1---------------|
       ** *                        ** *              

|-------------------------------------------------------------|
|-------------------------------------------------------------|
|-------------------------------------------------------------|
|------------------3--0--3------------------6--5-6------------|
|---------------0--3--0--3---------------0--6--5-6------------|
|------------00-0--3--0--3------------00-0--6--5-6------------|
             ** *                     ** *


Pre-chorus
0:46

|-------------------------------------------------------------|
|-------------------------------------------------------------|
|-------------------------------------------------------------|
|------------3--0--3---------------------3--0--3--------------|
|---------0--3--0--3------------------0--3--0--3--------------|
|------00-0--3--0--3---------------00-0--3--0--3--------------|
       ** *                        ** *   
           
|-------------------------------------------------------------|
|-------------------------------------------------------------|
|-------------------------------------------------------------|
|-----------3--0--3----------------------6--5-6---------------|
|--------0--3--0--3-------------------0--6--5-6---------------|
|-----00-0--3--0--3----------------00-0--6--5-6---------------|
      ** *                         ** *


Chorus
1:00

|-------------------------------------------------------------------------|
|-------------------------------------------------------------------------|
|-------------------------------------------------------------------------|
|---------3--0--3----------1--0-1------------3--0--3---------6--5-6-------| x2
|------0--3--0--3-------0--1--0-1---------0--3--0--3------0--6--5-6-------|
|---00-0--3--0--3----00-0--1--0-1------00-0--3--0--3---00-0--6--5-6-------|
    ** *             ** *              ** *            ** *




Verse 2
1:14

|-------------------------------------------------------------|
|-------------------------------------------------------------|
|-------------------------------------------------------------|
|------------3--0--3---------------------1--0-1---------------|
|---------0--3--0--3------------------0--1--0-1---------------|
|------00-0--3--0--3---------------00-0--1--0-1---------------|
       ** *                        ** *              

|-------------------------------------------------------------|
|-------------------------------------------------------------|
|-------------------------------------------------------------|
|------------------3--0--3------------------6--5-6------------|
|---------------0--3--0--3---------------0--6--5-6------------|
|------------00-0--3--0--3------------00-0--6--5-6------------|
             ** *                     ** *


Pre-chorus
0:46

|-------------------------------------------------------------|
|-------------------------------------------------------------|
|-------------------------------------------------------------|
|------------3--0--3---------------------3--0--3--------------|
|---------0--3--0--3------------------0--3--0--3--------------|
|------00-0--3--0--3---------------00-0--3--0--3--------------|
       ** *                        ** *   
           
|-------------------------------------------------|
|-------------------------------------------------|
|-------------------------------------------------|
|-----------3--0--3-------------------------------|
|--------0--3--0--3-------------------------------|
|-----00-0--3--0--3-------------------------------|
      ** *                       

Chorus
1:41

|-------------------------------------------------------------------------|
|-------------------------------------------------------------------------|
|-------------------------------------------------------------------------|
|---------3--0--3----------1--0-1------------3--0--3---------6--5-6-------| x2
|------0--3--0--3-------0--1--0-1---------0--3--0--3------0--6--5-6-------|
|---00-0--3--0--3----00-0--1--0-1------00-0--3--0--3---00-0--6--5-6-------|
    ** *             ** *              ** *            ** *


1:55
Leading up the to the bridge (if that's what you want to call it)

|-------------------------------------------------|
|-------------------------------------------------|
|-------------------------------------------------|
|---0------0-----0--0--0--0-----------------------|
|---0------0-----0--0--0--0-----------------------|
|---0------0-----0--0--0--0-----------------------|
           ^
           From here on is technically just the bass

 Partially palm muted, but not completely.


Bridge
2:00

|------------------------------------------------------------------|
|------------------------------------------------------------------|
|------------------------------------------------------------------|
|--12--12-----12--12-----12------10--10-----10--10-----10----------|
|--12--12-12--12--12-12--12-12---10--10-10--10--10-10--10-10-------|
|--12--12-12--12--12-12--12-12---10--10-10--10--10-10--10-10-------|
          *          *      *           *          *      *

|------------------------------------------------------------------|
|------------------------------------------------------------------|
|------------------------------------------------------------------|
|--8--8----8--8----8-----5--5----8--7----7-------------------------|
|--8--8-8--8--8-8--8-8---5--5-5--8--7-7--7-7-----------------------|
|--8--8-8--8--8-8--8-8---5--5-5--8--7-7--7-7-----------------------|
        *       *    *        *  *    *    *

Verse 3
2:14

|-------------------------------------------------------------|
|-------------------------------------------------------------|
|-------------------------------------------------------------|
|------------3--0--3---------------------1--0-1---------------|
|---------0--3--0--3------------------0--1--0-1---------------|
|------00-0--3--0--3---------------00-0--1--0-1---------------|
       ** *                        ** *              

|-------------------------------------------------------------|
|-------------------------------------------------------------|
|-------------------------------------------------------------|
|------------------3--0--3------------------6--5-6------------|
|---------------0--3--0--3---------------0--6--5-6------------|
|------------00-0--3--0--3------------00-0--6--5-6------------|
             ** *                     ** *

Pre-chorus
2:27

|-------------------------------------------------------------------------|
|-------------------------------------------------------------------------|
|-------------------------------------------------------------------------|
|---------3--0--3----------------------------3--0--3----------------------|
|------0--3--0--3-------0-----------------0--3--0--3------0---------------|
|---00-0--3--0--3----00-0--1--0-1------00-0--3--0--3---00-0--6--5-6-------|
    ** *             ** *              ** *            ** *
                                                             ^
                             ^ Lowered volume                |
                          and pinch harmonic ----------------|
                          styled picking
                          to give the effect

|-------------------------------------------------------------------------|
|-------------------------------------------------------------------------|
|-------------------------------------------------------------------------|
|---------3--0--3----------------------------3--0--3---------6--5-6-------|
|------0--3--0--3-------0-----------------0--3--0--3------0--6--5-6-------|
|---00-0--3--0--3----00-0--3--0-3------00-0--3--0--3---00-0--6--5-6-------|
    ** *             ** *              ** *            ** *

                            ^ Lowered volume
                            and pinch harmonic
                            styled picking
                            to give the effect

Chorus
2:43

|-------------------------------------------------------------------------|
|-------------------------------------------------------------------------|
|-------------------------------------------------------------------------|
|---------3--0--3----------1--0-1------------3--0--3---------6--5-6-------| x2
|------0--3--0--3-------0--1--0-1---------0--3--0--3------0--6--5-6-------|
|---00-0--3--0--3----00-0--1--0-1------00-0--3--0--3---00-0--6--5-6-------|
    ** *             ** *              ** *            ** *


2:55

|-------------------------------------------------------------|
|-------------------------------------------------------------|
|-------------------------------------------------------------|
|-----8-----10--\\-------------3--0--3---------6--5-6---------|
|-----8-----10--\\----------0--3--0--3------0--6--5-6---------|
|-----8-----10--\\-------00-0--3--0--3---00-0--6--5-6---------|
                         ** *            ** *

|-------------------------------------------------------------|
|-------------------------------------------------------------|
|-------------------------------------------------------------|
|----8-----10----7---\\---------------------------------------|
|----8-----10----7---\\---------------------------------------|
|----8-----10----7---\\---------------------------------------|



Bridge
3:15
                                                                     _
|------------------------------------------------------------------|  |
|------------------------------------------------------------------|  |
|------------------------------------------------------------------|  |
|--12--12-----12--12-----12------10--10-----10--10-----10----------|  |
|--12--12-12--12--12-12--12-12---10--10-10--10--10-10--10-10-------|  |
|--12--12-12--12--12-12--12-12---10--10-10--10--10-10--10-10-------|  |
          *          *      *           *          *      *           |
                                                                      |> x2
|------------------------------------------------------------------|  |
|------------------------------------------------------------------|  |
|------------------------------------------------------------------|  |
|--8--8----8--8----8-----5--5----8--7----7-------------------------|  |
|--8--8-8--8--8-8--8-8---5--5-5--8--7-7--7-7-----------------------|  |
|--8--8-8--8--8-8--8-8---5--5-5--8--7-7--7-7-----------------------|  |
        *       *    *        *  *    *    *                         _|




=============================================================================

Track 3  		Motherzone

=============================================================================

By:  Deathstars
Album: Termination Bliss

Tabbed by: John Moores
mooresjw@email.uc.edu


Drop C Tuning (CGCFAD)

* = Palm Mute
@ = Pinched harmonic
x = muted
~ = bend like vibrato


Intro

0:12
Pick Scratch
|--------------------------------------------------------|
|--------------------------------------------------------|
|--------------------------------------------------------|
|-----x//////--------------------------------------------|
|-----x//////--------------------------------------------|
|-----x//////--------------------------------------------|



0:14                                                
|-------------------------------------------------------------|    
|-------------------------------------------------------------|    
|-------------------------------------------------------------|    
|-------------------------------------------------------------|    
|---0-0-0-0-0-0-0-0--8-8-8-8-8-8-8-8--10-10-10-10-10-10-10-10-|    
|---0-0-0-0-0-0-0-0--8-8-8-8-8-8-8-8--10-10-10-10-10-10-10-10-|

|-------------------------------------------------------------|      
|-------------------------------------------------------------|    
|-------------------------------------------------------------|    
|----5--5--5--5-----------------------------------------------|    
|----5--5--5--5-----------------------------------------------|    
|----5--5--5--5-----------------------------------------------|    

|-------------------------------------------------------------|    
|-------------------------------------------------------------|    
|-------------------------------------------------------------|    
|-------------------------------------------------------------|    
|---0-0-0-0-0-0-0-0--8-8-8-8-8-8-8-8--10-10-10-10-10-10-10-10-|    
|---0-0-0-0-0-0-0-0--8-8-8-8-8-8-8-8--10-10-10-10-10-10-10-10-|    
                                                                   
|-------------------------------------------------------------|      
|-------------------------------------------------------------|    
|-------------------------------------------------------------|    
|----5-5-5----3-3-3-----0-------------------------------------|    
|----5-5-5----3-3-3-----0-------------------------------------|    
|----5-5-5----3-3-3-----0-------------------------------------|  
              * * * 

Verse 1
0:28
|--------------------------------------------------------|
|--------------------------------------------------------|
|--------------------------------------------------------|
|--------------------------------------------------------|
|--------------------------------------------------------|
|--------------------------------------------------------|

Pre-chorus
0:56

|------------------------------------------------------|
|------------------------------------------------------|
|------------------------------------------------------|
|----8----11----12------10----8-------5-5-5---3----7---|
|----8----11----12------10----8--7-7--5-5-5---3----7---|
|----8----11----12------10----8--7-7--5-5-5---3----7---|
                                 * *    * *

Chorus
1:09
|-------------------------------------------------------------|    
|-------------------------------------------------------------|    
|-------------------------------------------------------------|    
|-------------------------------------------------------------|    
|---0-0-0-0-0-0-0-0--8-8-8-8-8-8-8-8--10-10-10-10-10-10-10-10-|    
|---0-0-0-0-0-0-0-0--8-8-8-8-8-8-8-8--10-10-10-10-10-10-10-10-|

|-------------------------------------------------------------|      
|-------------------------------------------------------------|    
|-------------------------------------------------------------|    
|----5--5--5--5-----------------------------------------------|    
|----5--5--5--5-----------------------------------------------|    
|----5--5--5--5-----------------------------------------------|    

|-------------------------------------------------------------|    
|-------------------------------------------------------------|    
|-------------------------------------------------------------|    
|-------------------------------------------------------------|    
|---0-0-0-0-0-0-0-0--8-8-8-8-8-8-8-8--10-10-10-10-10-10-10-10-|    
|---0-0-0-0-0-0-0-0--8-8-8-8-8-8-8-8--10-10-10-10-10-10-10-10-|    
                                                                   
|-------------------------------------------------------------|      
|-------------------------------------------------------------|    
|-------------------------------------------------------------|    
|----5-5-5----3-3-3--------------10~--------------------------|    
|----5-5-5----3-3-3--------------10~--------------------------|    
|----5-5-5----3-3-3--------------10~--------------------------|  
              * * * 

Verse 2
1:27
|--------------------------------------------------------|
|--------------------------------------------------------|
|--------------------------------------------------------|
|--------------------------------------------------------|
|--------------------------------------------------------|
|--------------------------------------------------------|

1:41
|-------------------------------------------------------------|    
|-------------------------------------------------------------|    
|-------------------------------------------------------------|    
|---7-7-7-7-7-7-7-7-------------------------------------------|    x2
|---5-5-5-5-5-5-5-5--8-8-8-8-10-10-10-10--0-0--0--0-0--0--0---|    
|--------------------8-8-8-8-10-10-10-10--0-0--0--0-0--0--0---|
    * * * * * * * *  * * * * * * * *  *   *  *  * * *  *  *

Pre-chorus
1:56

Chorus
2:10
   

Bridge
2:23

|--------------------------------------------------------|
|--------------------------------------------------------|
|--------------------------------------------------------|
|---5--5--7--8--8--10-13----10--12----16-----------------|
|---3--3--5--6--6--8--11----8---10----14-----------------|
|--------------------------------------------------------|
       *  *     *   

Bridge pt. 2
2:51

|--------------------------------------------------------|
|--------------------------------------------------------|
|--------------------------------------------------------|
|--------------------------------------------------------|
|---0---0--2-3---3--5----8---5---7---11------------------|
|---0---0--2-3---3--5----8---5---7---11------------------|
        *  *     *

It sounds like a second guitar may be playing this an octave up
which would be:
|--------------------------------------------------------|
|--------------------------------------------------------|
|---------------------------------------13---------------|
|---7--7--9--10--10--12--15---12--13----11---------------|
|---5--5--7--8---8---10--13---10--11---------------------|
|--------------------------------------------------------|
       *  *      *   


Pre-chorus
3:18


Chorus
3:32



=============================================================================

Track 4  		Cyanide

=============================================================================

By:  Deathstars
Album: Termination Bliss

Tabbed by: John Moores
mooresjw@email.uc.edu

Special Thanks to cincit2 for tabbing it out, a good version.Hhere is my 
interpretation.  His was veryaccurate, just some places it 
needed to be tweaked, mainly, I added the timings and such.

Drop C Tuning (CGCFAD)

* = Palm Mute
@ = Pinched harmonic
x = muted
~ = bend like vibrato


Intro
0:16

|--------------------------------------------------|
|--------------------------------------------------|
|--------------------------------------------------|
|---5-5---5-5---3-3----5--5----5--5----------------| x2
|---5-5---5-5---3-3----3--3----3--3----------------|
|---5-5---5-5---3-3--------------------------------|

Stacato on the chords, except the last one, let ring
sounds like the pickups are switched to the neck pickups

0:30
|--------------------------------------------------|
|--------------------------------------------------|
|--------------------------------------------------|
|--Pick Scratch------------------------------------|
|------\\\\\---------------------------------------|
|------\\\\\---------------------------------------|


|--------------------------------------------------|
|--------------------------------------------------|
|--------------------------------------------------|
|---5--------8----3-----5------7/8-----------------| x2
|---5--------8-7--3-----3------7/8-----------------|
|---5--------8-7--3------------7/8-----------------|

Verse 1
0:46
|--------------------------------------------------|
|--------------------------------------------------|
|----------Nothing Played--------------------------|
|------------During this part----------------------|
|--------------------------------------------------|
|--------------------------------------------------|

1:01
|--------------------------------------------------|
|--------------------------------------------------|
|--------------------------------------------------|
|-----5-------3-------5----------------------------| x2
|-----5-------3-------3----------------------------|
|-----5-------3------------------------------------|

Chorus
1:19
Pick scratch as you come into the F5 chord (5th fret)
|--------------------------------------------------|
|--------------------------------------------------|
|--------------------------------------------------|
|---5--------8----3-----5------7/8-----------------| x2
|---5--------8-7--3-----3------7/8-----------------|
|---5--------8-7--3------------7/8-----------------|

Verse 2
1:35

|--------------------------------------------------|
|--------------------------------------------------|
|------Nothing played------------------------------|
|--------------------------------------------------|
|--------------------------------------------------|
|--------------------------------------------------|

1:49
|--------------------------------------------------|
|--------------------------------------------------|
|--------------------------------------------------|
|-----5-------3-------5----------------------------| x2
|-----5-------3-------3----------------------------|
|-----5-------3------------------------------------|


Chorus
2:08
Pick scratch as you come into the F5 chord (5th fret)
|--------------------------------------------------|
|--------------------------------------------------|
|--------------------------------------------------|
|---5--------8----3-----5------7/8-----------------| x4
|---5--------8-7--3-----3------7/8-----------------|
|---5--------8-7--3------------7/8-----------------|


Bridge
2:38
|----------------------------------------------------|
|----------------------------------------------------|
|----------------------------------------------------|
|--8-8--8-8--8-8--8-8----10-10--10-10----7--7-7--7---| x2
|--8-8--8-8--8-8--8-8----10-10--10-10-8--7--7-7--7---|
|--8-8--8-8--8-8--8-8----10-10--10-10-8--7--7-7--7---|
                                      *     * *

2:53
|--------------------------------------------------|
|--------------------------------------------------|
|--------------------------------------------------|
|---5-5---5-5---3-3----5--5----5--5----------------| x2
|---5-5---5-5---3-3----3--3----3--3----------------|
|---5-5---5-5---3-3--------------------------------|

Stacato on the chords, except the last one, let ring
sounds like the pickups are switched to the neck pickups


Verse 3 / Chorus rhythm
3:08
|--------------------------------------------------|
|--------------------------------------------------|
|--------------------------------------------------|
|---5--------8----3-----5------7/8-----------------| x4
|---5--------8-7--3-----3------7/8-----------------|
|---5--------8-7--3------------7/8-----------------|


End
3:37
|-----------------------------------|
|-----------------------------------|
|-----------------------------------|
|--8-8--8-8-10--7--7-7-7--/5\\------|
|--8-8--8-8-10--7--7-7-7--/5\\------|
|--8-8--8-8-10--7--7-7-7--/5\\------|
                   * * *




=============================================================================

Track 5  	       Greatest Fight on the Earth

=============================================================================

By:  Deathstars
Album: Termination Bliss

Tabbed by: John Moores
mooresjw@email.uc.edu

Drop C Tuning (CGCFAD)

* = Palm Mute
@ = Pinched harmonic
x = muted
~ = bend like vibrato

Verse 1
0:42

|-------------------------------------------------------|
|-------------------------------------------------------|
|-------------------------------------------------------|
|-------------------------------------------------------| x4
|----7-7--7--7-7----1-1--1--5-5-------------------------|
|----7-7--7--7-7----1-1--1--5-5-------------------------|
     * *  *  * *    * *  *  * *

Pre-chorus
1:02
|-------------------------------------------------------|
|-------------------------------------------------------|
|-------------------------------------------------------|
|-------------------------------------------------------|
|-----7-7---7--9--10------------------------------------|
|-----7-7---7--9--10------------------------------------|
      * *

|-------------------------------------------------------|
|-------------------------------------------------------| 
|-------------------------------------------------------|
|---3-----------10--9--5--0-----------10--9--5----------|
|---3-----------10--9--5--0-----------10--9--5----------|
|---3--3-3-3-3--10--9--5--0--0-0-0-0--10--9--5----------|
       * * * *               * * * *

|-------------------------------------------------------|
|-------------------------------------------------------|
|-------------------------------------------------------|
|--7-----------7--9-------3-----------------------------|
|--7-----------7--9--10---3-----------------------------|
|--7--7-7-7-7--7--9--10---3--3-3-3-3--------------------|
      * * * *  *  *  *       * * * *
|-------------------------------------------------------|
|-------------------------------------------------------| 
|-------------------------------------------------------|
|---10--9--5--3-----------10--9--5--0-------------------|
|---10--9--5--3-----------10--9--5--0-------------------|
|---10--9--5--3--3-3-3-3--10--9--5--0--0-0-0-0----------|
                 * * * *               * * * *

|-------------------------------------------------------|
|-------------------------------------------------------|
|-------------------------------------------------------|
|--10--9--5----2-----------2-----------2------------6---|
|--10--9--5----2-----------2-----------2------------6---|
|--10--9--5----2--2-2-2-2--2--2-2-2-2--2--2-2-2-2---6---|
                  * * * *     * * * *     * * * *

1:24

|-------------------------------------------------------|
|-------------------------------------------------------|
|-------------------------------------------------------|
|--0---------3---------7---7-10-9-5---5--7---9----------| x2
|--0--0-3-0--3---------7---7-10-9-5---5--7---9----------|
|--0--0-3-0--3--3-2-0--7---7-10-9-5---5--7---9----------|
      * * *     * * * 

Verse 2
1:44
|-------------------------------------------------------|
|-------------------------------------------------------|
|-------------------------------------------------------|
|-------------------------------------------------------| x4
|----7-7--7--7-7----1-1--1--5-5-------------------------|
|----7-7--7--7-7----1-1--1--5-5-------------------------|
     * *  *  * *    * *  *  * *

Pre-chorus
2:04

|-------------------------------------------------------|
|-------------------------------------------------------|
|-------------------------------------------------------|
|-------------------------------------------------------|
|-----7-7---7--9--10------------------------------------|
|-----7-7---7--9--10------------------------------------|
      * *

|-------------------------------------------------------|
|-------------------------------------------------------| 
|-------------------------------------------------------|
|---3-----------10--9--5--0-----------10--9--5----------|
|---3-----------10--9--5--0-----------10--9--5----------|
|---3--3-3-3-3--10--9--5--0--0-0-0-0--10--9--5----------|
       * * * *               * * * *

|-------------------------------------------------------|
|-------------------------------------------------------|
|-------------------------------------------------------|
|--7-----------7--9-------3-----------------------------|
|--7-----------7--9--10---3-----------------------------|
|--7--7-7-7-7--7--9--10---3--3-3-3-3--------------------|
      * * * *  *  *  *       * * * *
|-------------------------------------------------------|
|-------------------------------------------------------| 
|-------------------------------------------------------|
|---10--9--5--3-----------10--9--5--0-------------------|
|---10--9--5--3-----------10--9--5--0-------------------|
|---10--9--5--3--3-3-3-3--10--9--5--0--0-0-0-0----------|
                 * * * *               * * * *

|-------------------------------------------------------|
|-------------------------------------------------------|
|-------------------------------------------------------|
|--10--9--5----2-----------2-----------2------------6---|
|--10--9--5----2-----------2-----------2------------6---|
|--10--9--5----2--2-2-2-2--2--2-2-2-2--2--2-2-2-2---6---|
                  * * * *     * * * *     * * * *

2:28
|-------------------------------------------------------|
|-------------------------------------------------------|
|-------------------------------------------------------|
|---------------13\-------------------------------------| x3
|---777--77-7---13\---777--7--10-9-5--------------------|
|---777--77-7---13\---777--7--10-9-5--------------------|
    ***  ** *         ***

Play this on the last time
|-------------------------------------------------------|
|-------------------------------------------------------|
|-------------------------------------------------------|
|---------------13\-------------------------------------|
|---777--77-7---13\---777--7-99-10-10-12-12--13-13------|
|---777--77-7---13\---777--7-99-10-10-12-12--13-13------|
    ***  ** *         ***  * ** *  *  *  *   *  *                         

2:48

|-------------------------------------------------------|
|-------------------------------------------------------|
|-------------------------------------------------------|
|--0---------3---------7---7-10-9-5---5--7---9----------| x4
|--0--0-3-0--3---------7---7-10-9-5---5--7---9----------|
|--0--0-3-0--3--3-2-0--7---7-10-9-5---5--7---9----------|
      * * *     * * *        *  * *      *   *



=============================================================================

Track 6  	       Play God

=============================================================================

By:  Deathstars
Album: Termination Bliss

Tabbed by: John Moores
mooresjw@email.uc.edu

Drop C Tuning (CGCFAD)

* = Palm Mute
@ = Pinched harmonic
x = muted
~ = bend like vibrato

0:28
|---------------------------------------------------------|
|---------------------------------------------------------|
|---------------------------------------------------------|
|---------------------------------------------------------| x2
|--10--10-10--10-10---10-10-10--9--5--6--6-6-6-6--5-6--9--|
|--10--10-10--10-10---10-10-10--9--5--6--6-6-6-6--5-6--9--|
          *      *                       * *   *

Verse 1
0:42
|---------------------------------------|
|---------------------------------------|
|---------------------------------------|
|--5-5----5--5----5-5----5--5-----------|
|--5-5----5--5----5-5----5--5-----------|
|--5-5--5-5--5----5-5--5-5--5--6@-------|
         *             *
|---------------------------------------|
|---------------------------------------|
|---------------------------------------|
|--5-5----5--5----5-5----5--5--6--------|
|--5-5----5--5----5-5----5--5--6--------|
|--5-5--5-5--5----5-5--5-5--5--6--------|
         *             *

Pre-chorus
0:57
|-------------------------------------------------------|
|-------------------------------------------------------|
|-------------------------------------------------------|
|--3--5--6--8---5-5----5-5-----5-5----------------------|
|--3--5--6--8---3-3--3-3-3--3--3-3----------------------|
|--3--5--6--8-------------------------------------------|
                     *      *
|-------------------------------------------------------|
|-------------------------------------------------------|
|-------------------------------------------------------|
|--3--5--6--8---5-5----5-5-----5-5----------------------|
|--3--5--6--8---5-5----5-5-----5-5----------------------|
|--3--5--6--8---5-5--5-5-5--5--5-5----------------------|
                     *      *

Chorus
1:11

|---------------------------------------------------------|
|---------------------------------------------------------|
|---------------------------------------------------------|
|---------------------------------------------------------|
|--10----10-9--5-6--8--3-----10----10-9--5-6--3---8-------|
|--10----10-9--5-6--8--3-----10----10-9--5-6--3---8-------|


Verse 2
1:25

|---------------------------------------|
|---------------------------------------|
|---------------------------------------|
|--5-5----5--5----5-5----5--5-----------|
|--5-5----5--5----5-5----5--5-----------|
|--5-5--5-5--5----5-5--5-5--5--6@-------|
         *             *
|---------------------------------------|
|---------------------------------------|
|---------------------------------------|
|--5-5----5--5----5-5----5--5-----------|
|--5-5----5--5----5-5----5--5-----------|
|--5-5--5-5--5----5-5--5-5--5-----------|
         *             *


Pre-chorus
1:39

|-------------------------------------------------------|
|-------------------------------------------------------|
|-------------------------------------------------------|
|--3--5--6--8---5-5----5-5-----5-5----------------------|
|--3--5--6--8---3-3--3-3-3--3--3-3----------------------|
|--3--5--6--8-------------------------------------------|
                     *      *
|-------------------------------------------------------|
|-------------------------------------------------------|
|-------------------------------------------------------|
|--3--5--6--8---5-5----5-5-----5-5----------------------|
|--3--5--6--8---5-5----5-5-----5-5----------------------|
|--3--5--6--8---5-5--5-5-5--5--5-5----------------------|
                     *      *

Chorus
1:53

|---------------------------------------------------------|
|---------------------------------------------------------|
|---------------------------------------------------------|
|---------------------------------------------------------| x2
|--10----10-9--5-6--8--3-----10----10-9--5-6--3---8-------|
|--10----10-9--5-6--8--3-----10----10-9--5-6--3---8-------|


Intro Riff
2:22

|---------------------------------------------------------|
|---------------------------------------------------------|
|---------------------------------------------------------|
|---------------------------------------------------------| x2
|--10--10-10--10-10---10-10-10--9--5--6--6-6-6-6--5-6--9--|
|--10--10-10--10-10---10-10-10--9--5--6--6-6-6-6--5-6--9--|
          *      *                       * *   *

Bridge
2:35
|-------------------------------------------------------|
|-------------------------------------------------------|
|-------------------------------------------------------|
|---3----5--------3----5--------------------------------|
|---3----5--------3----5-----/6--5----------------------|
|---3----5--------3----5--------------------------------|


Pre-chorus
3:04

|-------------------------------------------------------|
|-------------------------------------------------------|
|-------------------------------------------------------|
|--3--5--6--8---5-5----5-5-----5-5----------------------|
|--3--5--6--8---3-3--3-3-3--3--3-3----------------------|
|--3--5--6--8-------------------------------------------|
                     *      *
|-------------------------------------------------------|
|-------------------------------------------------------|
|-------------------------------------------------------|
|--3--5--6--8---5-5----5-5-----5-5----------------------|
|--3--5--6--8---5-5----5-5-----5-5----------------------|
|--3--5--6--8---5-5--5-5-5--5--5-5----------------------|
                     *      *

Chorus (1 whole step up)
3:19
|---------------------------------------------------------|
|---------------------------------------------------------|
|---------------------------------------------------------|
|---------------------------------------------------------| x2
|--12----12-11--7-8--10--5----12--10---12-11--7-8--5---10-|
|--12----12-11--7-8--10--5----12--10---12-11--7-8--5---10-|


Bridge
3:50
|-------------------------------------------------------|
|-------------------------------------------------------|
|-------------------------------------------------------|
|---5----7--------5----7--------------------------------|
|---5----7--------5----7--------------------------------|
|---5----7--------5----7-----/3--2----------------------|



=============================================================================

Track 7  	       Trinity Fields

=============================================================================

By:  Deathstars
Album: Termination Bliss

Tabbed by: John Moores
mooresjw@email.uc.edu

Drop C Tuning (CGCFAD)

* = Palm Mute
@ = Pinched harmonic
x = muted
~ = bend like vibrato

Riff 1
0:18
|--------------------------------------------------|
|--------------------------------------------------|
|--------------------------------------------------|
|--------------------------------------------------|  x4
|--0--0-0----0--0-0---3--0-0----6--0-0-------------|
|--0--0-0----0--0-0---3--0-0----6--0-0-------------|
      * *       * *      * *       * *

Riff 1
0:56
|--------------------------------------------------|
|--------------------------------------------------|
|--------------------------------------------------|
|--------------------------------------------------|  x2
|--0--0-0----0--0-0---3--0-0----6--0-0-------------|
|--0--0-0----0--0-0---3--0-0----6--0-0-------------|
      * *       * *      * *       * *


Riff 1
1:24
|--------------------------------------------------|
|--------------------------------------------------|
|--------------------------------------------------|
|--------------------------------------------------|
|--0--0-0----0--0-0---3--0-0----6--0-0-------------|
|--0--0-0----0--0-0---3--0-0----6--0-0-------------|
      * *       * *      * *       * *


Chorus
1:28
|--------------------------------------------------|
|--------------------------------------------------|
|--------------------------------------------------|
|-----5---5---1---1----5-----5----10--8----7-------|
|-3---5---5---1---1----5-----5----10--8----7-------|
|-3---5-5-5---1-1-1----5--5--5----10--8----7-------|


|--------------------------------------------------|
|--------------------------------------------------|
|--------------------------------------------------|
|-----5---5---1---1----5--5-5--5-------------------|
|-3---5---5---1---1----3--3-3--3-------------------|
|-3---5-5-5---1-1-1--------------------------------|




1:46
|--------------------------------------------------|
|--------------------------------------------------|
|--------------------------------------------------|
|--------------------------------------------------|  x4
|--0--0-0----0--0-0---3--0-0----6--0-0-------------|
|--0--0-0----0--0-0---3--0-0----6--0-0-------------|
      * *       * *      * *       * *

Verse
2:05
|--------------------------------------------------|
|--------------------------------------------------|
|--------------------------------------------------|
|--------------------------------------------------| x4
|--------------------------------------------------|
|---00--00--00-------------------------------------|
    **  **  **


Riff 1
2:23
|--------------------------------------------------|
|--------------------------------------------------|
|--------------------------------------------------|
|--------------------------------------------------|
|--0--0-0----0--0-0---3--0-0----6--0-0-------------|
|--0--0-0----0--0-0---3--0-0----6--0-0-------------|
      * *       * *      * *       * *


Chorus
2:27
|--------------------------------------------------|
|--------------------------------------------------|
|--------------------------------------------------|
|-----5---5---1---1----5-----5----10--8----7-------|
|-3---5---5---1---1----5-----5----10--8----7-------|
|-3---5-5-5---1-1-1----5--5--5----10--8----7-------|
        *       *         *                   

|--------------------------------------------------|
|--------------------------------------------------|
|--------------------------------------------------|
|-----5---5---1---1----5--5-5--5-------------------|
|-3---5---5---1---1----3--3-3--3-------------------|
|-3---5-5-5---1-1-1--------------------------------|
        *       *         * * 


2:46
|--------------------------------------------------|
|--------------------------------------------------|
|--------------------------------------------------|
|--------------------------------------------------| 
|----8---8---10----10----5-----5-----3-----3-------|
|----8-8-8---10-10-10----5--5--5-----3--3--3-------|
       *        *           *           *

|--------------------------------------------------|
|--------------------------------------------------|
|--------------------------------------------------|
|------------------------------------7--7-7--7-----| 
|----8---8---10----10----5-----5-----5--5-5--5-----|
|----8-8-8---10-10-10----5--5--5-------------------|
       *        *           *           * *


3:23
Chorus


4:00
Riff 1



=============================================================================

Track 8  	       The Last Ammunition

=============================================================================

By:  Deathstars
Album: Termination Bliss

Tabbed by: John Moores
mooresjw@email.uc.edu

Drop C Tuning (CGCFAD)

* = Palm Mute
@ = Pinched harmonic
x = muted
~ = bend like vibrato

Intro.

0:13

|-------------------------------------------------------|
|-------------------------------------------------------|
|-------------------------------------------------------|
|-----8---8--8--11--8--7--0-----------------------------|
|-----8---8--8--11--8--7--0-----------------------------|
|-----8---8--8--11--8--7--0-----------------------------|



0:17

|-----------------------------------------------------------------------------|
|-----------------------------------------------------------------------------|
|-----------------------------------------------------------------------------|
|--------------------------------------------------------------6-6------------|
|------0--0--0--0-------0--0--3-3---------0--0--0--------0--0--6-6------------|
|---00-0--0--0--0----00-0--0--3-3------00-0--0--0-----00-0--0--6-6------------|
    ** *             ** *              ** *           ** *



|-----------------------------------------------------------------------------|
|-----------------------------------------------------------------------------|
|-----------------------------------------------------------------------------|
|-----------------------------------------------------8---8--8--11--7--0------|
|------0--0--0--0-------0--0--3-3---------0--0--0-----8---8--8--11--7--0------|
|---00-0--0--0--0----00-0--0--3-3------00-0--0--0-----8---8--8--11--7--0------|
    ** *             ** *              ** *


Verse 1

0:33



0:36

|------------------------------------------|
|------------------------------------------|
|------------------------------------------|
|------------------------------------------|
|---------0--0--0--0----------0--0--3-3----|
|------00-0--0--0--0-------00-0--0--3-3----|
       ** *                ** *            



0:44

|-----------------------------------------------|
|-----------------------------------------------|
|-----------------------------------------------|
|--------------------------------6-6------------|
|---------0--0--0----------0--0--6-6------------|
|------00-0--0--0-------00-0--0--6-6------------|
       ** *             ** *

0:51

|------------------------------------------|
|------------------------------------------|
|------------------------------------------|
|------------------------------------------|
|---------0--0--0--0----------0--0--3-3----|
|------00-0--0--0--0-------00-0--0--3-3----|
       ** *                ** *      

0:59

|------------------------------------------|
|------------------------------------------|
|------------------------------------------|
|-----------------------------------2-3----|
|---------0--0--0--0----------0--0--2-3----|
|------00-0--0--0--0-------00-0--0--2-3----|
       ** *                ** *   


Pre-Chorus

1:03

|------------------------------------------|
|------------------------------------------|
|------------------------------------------|
|------------------------------------------|
|---5--5--5---3---7-----8--8--8--10----7---|
|---5--5--5---3---7-----8--8--8--10----7---|



Chorus

1:10


|------------------------------------------|
|------------------------------------------|
|------------------------------------------|
|------------------------------------------|
|---0--00-0-0---0-0---0--00-0-0---0-0-0----|
|---0--00-0-0---0-0---0--00-0-0---0-0-0----|
       ** * *   * *      ** * *   * * *


|------------------------------------------|
|------------------------------------------|
|------------------------------------------|
|------------------------------------------|
|---5--55-5-5---5-5-5---3--7-7-7-7---------|
|---5--55-5-5---5-5-5---3--7-7-7-7---------|
       ** * *   * * *      * * * *


|------------------------------------------|
|------------------------------------------|
|------------------------------------------|
|------------------------------------------|
|---0--00-0-0---0-0---0--00-0-0---0-0-0----|
|---0--00-0-0---0-0---0--00-0-0---0-0-0----|
       ** * *   * *      ** * *   * * *



|------------------------------------------|
|------------------------------------------|
|------------------------------------------|
|------------------------------------------|
|--5--55-5-5---5-5-5---8---8--8--11--7--0--|
|--5--55-5-5---5-5-5---8---8--8--11--7--0--|
       ** * *   * * *      


Intro Riff

1:27

|-----------------------------------------------------------------------------|
|-----------------------------------------------------------------------------|
|-----------------------------------------------------------------------------|
|--------------------------------------------------------------6-6------------|
|------0--0--0--0-------0--0--3-3---------0--0--0--------0--0--6-6------------|
|---00-0--0--0--0----00-0--0--3-3------00-0--0--0-----00-0--0--6-6------------|
    ** *             ** *              ** *           ** *



|-----------------------------------------------------------------------------|
|-----------------------------------------------------------------------------|
|-----------------------------------------------------------------------------|
|-----------------------------------------------------8---8--8--11--7--0------|
|------0--0--0--0-------0--0--3-3---------0--0--0-----8---8--8--11--7--0------|
|---00-0--0--0--0----00-0--0--3-3------00-0--0--0-----8---8--8--11--7--0------|
    ** *             ** *              ** *



Verse 2

1:41


1:45

|------------------------------------------|
|------------------------------------------|
|------------------------------------------|
|------------------------------------------|
|---------0--0--0--0----------0--0--3-3----|
|------00-0--0--0--0-------00-0--0--3-3----|
       ** *                ** *            

1:53

|-----------------------------------------------|
|-----------------------------------------------|
|-----------------------------------------------|
|--------------------------------6-6------------|
|---------0--0--0----------0--0--6-6------------|
|------00-0--0--0-------00-0--0--6-6------------|
       ** *             ** *

2:00

|------------------------------------------|
|------------------------------------------|
|------------------------------------------|
|------------------------------------------|
|---------0--0--0--0----------0--0--3-3----|
|------00-0--0--0--0-------00-0--0--3-3----|
       ** *                ** *            


2:08

|------------------------------------------|
|------------------------------------------|
|------------------------------------------|
|----------------------3--2--0----3--2--0--|
|---------0--0--0--0---3--2--0----3--2--0--|
|------00-0--0--0--0---3--2--0----3--2--0--|
       ** *            


Pre-Chorus

2:11

|------------------------------------------|
|------------------------------------------|
|------------------------------------------|
|------------------------------------------|
|---5--5--5---3---7-----8--8--8--10----7---|
|---5--5--5---3---7-----8--8--8--10----7---|


Chorus

2:19


|------------------------------------------|
|------------------------------------------|
|------------------------------------------|
|------------------------------------------|
|---0--00-0-0---0-0---0--00-0-0---0-0-0----|
|---0--00-0-0---0-0---0--00-0-0---0-0-0----|
       ** * *   * *      ** * *   * * *


|------------------------------------------|
|------------------------------------------|
|------------------------------------------|
|------------------------------------------|
|---5--55-5-5---5-5-5---3--7-7-7-7---------|
|---5--55-5-5---5-5-5---3--7-7-7-7---------|
       ** * *   * * *      * * * *


|------------------------------------------|
|------------------------------------------|
|------------------------------------------|
|------------------------------------------|
|---0--00-0-0---0-0---0--00-0-0---0-0-0----|
|---0--00-0-0---0-0---0--00-0-0---0-0-0----|
       ** * *   * *      ** * *   * * *



|------------------------------------------|
|------------------------------------------|
|------------------------------------------|
|------------------------------------------|
|--5--55-5-5---5-5-5---8---8--8--11--7--0--|
|--5--55-5-5---5-5-5---8---8--8--11--7--0--|
       ** * *   * * *      


Intro Riff

2:34


|-----------------------------------------------------------------------------|
|-----------------------------------------------------------------------------|
|-----------------------------------------------------------------------------|
|--------------------------------------------------------------6-6------------|
|------0--0--0--0-------0--0--3-3---------0--0--0--------0--0--6-6------------|
|---00-0--0--0--0----00-0--0--3-3------00-0--0--0-----00-0--0--6-6------------|
    ** *             ** *              ** *           ** *



|-----------------------------------------------------------------------------|
|-----------------------------------------------------------------------------|
|-----------------------------------------------------------------------------|
|-----------------------------------------------------8---8--8--11--11--11----|
|------0--0--0--0-------0--0--3-3---------0--0--0-----8---8--8--11--11--11----|
|---00-0--0--0--0----00-0--0--3-3------00-0--0--0-----8---8--8--11--11--11----|
    ** *             ** *              ** *


2:50

|------------------------------------------|
|------------------------------------------|
|------------------------------------------|
|------------------------------------------|
|---5-------3---7-----8------10----7-------|
|---5-------3---7-----8------10----7-------|


2:57

|------------------------------------------|
|------------------------------------------|
|------------------------------------------|
|------------------------------------------|
|---0--------------------------------------|
|---0--------------------------------------|
    *
   
    ^- Heavier Palm mute than usual so it's just a boom - just listen to it



3:14
                                             _
|------------------------------------------|  |
|------------------------------------------|  |
|------------------------------------------|  |
|------------------------------------------|  |
|---0--00-0-0---0-0---0--00-0-0---0-0-0----|  |
|---0--00-0-0---0-0---0--00-0-0---0-0-0----|  |
       ** * *   * *      ** * *   * * *       |
                                              |======  x5
                                              |     
|------------------------------------------|  |
|------------------------------------------|  |
|------------------------------------------|  |
|------------------------------------------|  |
|---5--55-5-5---5-5-5---3--7-7-7-7---------|  |
|---5--55-5-5---5-5-5---3--7-7-7-7---------|  |
       ** * *   * * *      * * * *            |
                                             _|

3:51

|------------------------------------------|
|------------------------------------------|
|------------------------------------------|
|------------------------------------------|
|---0--00-0-0---0-0---0--00-0-0---0-0-0----|
|---0--00-0-0---0-0---0--00-0-0---0-0-0----|
       ** * *   * *      ** * *   * * *

|------------------------------------------|
|------------------------------------------|
|------------------------------------------|
|------------------------------------------|
|--5--55-5-5---5-5-5---8---8--8--11--7--0--|
|--5--55-5-5---5-5-5---8---8--8--11--7--0--|
       ** * *   * * *      




=============================================================================

Track 9  	       Virtue to Vice

=============================================================================

By:  Deathstars
Album: Termination Bliss

Tabbed by: John Moores
mooresjw@email.uc.edu

Drop C Tuning (CGCFAD)

* = Palm Mute
@ = Pinched harmonic
x = muted
~ = bend like vibrato

Intro (on piano)


Riff 1
0:13
|--------------------------------------------------|
|--------------------------------------------------|
|--------------------------------------------------|
|--------------------------------------------------| 
|--0----0-0------0----0-0-----5---5-5----8--10-----|
|--0----0-0------0----0-0-----5---5-5----8--10-----|
        * *           * *         * *       


Riff 2
0:25
|--------------------------------------------------|
|--------------------------------------------------|
|--------------------------------------------------|
|--------------------------------------------------|
|-/3\-0--0--0-0--0-0--0-0-----0--0--0-0--0-0--0-0--|
|-/3\-0--0--0-0--0-0--0-0---0-0--0--0-0--0-0--0-0--|
            * *  * *  * *   *       * *  * *  * *


|--------------------------------------------------|
|--------------------------------------------------|
|--------------------------------------------------|
|--------------------------------------------------|
|---5--5--5-5--5-5--5-5-----8---8---10----10-----5-|
|-0-5--5--5-5--5-5--5-5---5-8---8---10----10-----5-|
  *       * *  * *  * *   *


Verse 1
0:39


0:55
|--------------------------------------------------|
|--------------------------------------------------|
|--------------------------------------------------|
|--------------------------------------------------|
|--0--0-0-0----2--2-2--2--22-3--3-3-3----5--5-5--5-|
|--0--0-0-0----2--2-2--2--22-3--3-3-3----5--5-5--5-|
      * * *         *     **    * * *         *


|--------------------------------------------------|
|--------------------------------------------------|
|--------------------------------------------------|
|--------------------------------------------------|
|--0--0-0-0----2--2-2--2--22-3--3-3-3----8--8-8--8-|
|--0--0-0-0----2--2-2--2--22-3--3-3-3----8--8-8--8-|
      * * *         *     **    * * *         *

Chorus
1:09
|--------------------------------------------------|
|--------------------------------------------------|
|--------------------------------------------------|
|--------------------------------------------------|
|-----0--0--0-0--0-0--0-0-----0--0--0-0--0-0--0-0--|
|-----0--0--0-0--0-0--0-0---0-0--0--0-0--0-0--0-0--|
            * *  * *  * *   *       * *  * *  * *


|--------------------------------------------------|
|--------------------------------------------------|
|--------------------------------------------------|
|--------------------------------------------------|
|---5--5--5-5--5-5--5-5-----8---8---10----10-------|
|-0-5--5--5-5--5-5--5-5---5-8---8---10----10-------|
  *       * *  * *  * *   *



Verse 2
1:21



1:33
|--------------------------------------------------|
|--------------------------------------------------|
|--------------------------------------------------|
|--------------------------------------------------|
|--0--0-0-0----2--2-2--2--22-3--3-3-3----5--5-5--5-|
|--0--0-0-0----2--2-2--2--22-3--3-3-3----5--5-5--5-|
      * * *         *     **    * * *         *

|--------------------------------------------------|
|--------------------------------------------------|
|--------------------------------------------------|
|--------------------------------------------------|
|--0--0-0-0----2--2-2--2--22-3--3-3-3----8--8-8--8-|
|--0--0-0-0----2--2-2--2--22-3--3-3-3----8--8-8--8-|
      * * *         *     **    * * *         *



Chorus
1:46
|--------------------------------------------------|
|--------------------------------------------------|
|--------------------------------------------------|
|--------------------------------------------------|
|-----0--0--0-0--0-0--0-0-----0--0--0-0--0-0--0-0--|
|-----0--0--0-0--0-0--0-0---0-0--0--0-0--0-0--0-0--|
            * *  * *  * *   *       * *  * *  * *


|--------------------------------------------------|
|--------------------------------------------------|
|--------------------------------------------------|
|--------------------------------------------------|
|---5--5--5-5--5-5--5-5-----8---8---10----10-------|
|-0-5--5--5-5--5-5--5-5---5-8---8---10----10-------|
  *       * *  * *  * *   *




Bridge
2:00

|--------------------------------------------------|
|--------------------------------------------------|
|--------------------------------------------------|
|--------------------------------------------------| 
|--0----0-0------5----5-5-----12---12-12----10--7--|
|--0----0-0------5----5-5-----12---12-12----10--7--|
        * *           * *           * *       

|--------------------------------------------------|
|--------------------------------------------------|
|--------------------------------------------------|
|--------------------------------------------------| 
|--0--0-0--0-0--0-----5--5-5--5-5--5-5-------------|
|--0--0-0--0-0--0-0---5--5-5--5-5--5-5-------------|
      * *  * *  * *      * *  * *  * *

|--------------------------------------------------|
|--------------------------------------------------|
|--------------------------------------------------|
|--------------------------------------------------| 
|---12--12-12--12-12--12-12--------10--------------|
|-5-12--12-12--12-12--12-12-----12-10-----7-7-7----|
  *      *  *   *  *   *  *     *         * * *


2:27



2:54
|--------------------------------------------------|
|--------------------------------------------------|
|--------------------------------------------------|
|--------------------------------------------------|
|--0--0-0-0----2--2-2--2--22-3--3-3-3----5--5-5--5-|
|--0--0-0-0----2--2-2--2--22-3--3-3-3----5--5-5--5-|
      * * *         *     **    * * *         *  

|--------------------------------------------------|
|--------------------------------------------------|
|--------------------------------------------------|
|--------------------------------------------------|
|--0--0-0-0----2--2-2--2--22-8--8-8-8----7--7-7--7-|
|--0--0-0-0----2--2-2--2--22-8--8-8-8----7--7-7--7-|
      * * *         *     **    * * *         *



|--------------------------------------------------|
|--------------------------------------------------|
|--------------------------------------------------|
|--------------------------------------------------|
|--0--0-0-0----2--2-2--2--22-3--3-3-3----5--5-5--5-|
|--0--0-0-0----2--2-2--2--22-3--3-3-3----5--5-5--5-|
      * * *         *     **    * * *         *

|--------------------------------------------------|
|--------------------------------------------------|
|--------------------------------------------------|
|--------------------------------------------------|
|--0--0-0-0----2--2-2--2--22-3--3-3-3----8--8-8--8-|
|--0--0-0-0----2--2-2--2--22-3--3-3-3----8--8-8--8-|
      * * *         *     **    * * *         *


3:20
|--------------------------------------------------|
|--------------------------------------------------|
|--------------------------------------------------|
|--------------------------------------------------|
|-/3\-0--0--0-0--0-0--0-0-----0--0--0-0--0-0--0-0--|
|-/3\-0--0--0-0--0-0--0-0---0-0--0--0-0--0-0--0-0--|
            * *  * *  * *   *       * *  * *  * *


|--------------------------------------------------|
|--------------------------------------------------|
|--------------------------------------------------|
|--------------------------------------------------|
|---5--5--5-5--5-5--5-5-----8---8---10----10-------|
|-0-5--5--5-5--5-5--5-5---5-8---8---10----10-------|
  *       * *  * *  * *   *


3:33
|--------------------------------------------------|
|--------------------------------------------------|
|--------7-----------------------------------------|
|--5-----7-----------------------------------------|
|--5-----5-----0-0---------------------------------|
|--5-----------0-0---------------------------------|
         ^     * *
         ^
         lightly (maybe decreased volume)




=============================================================================

Track 10  	       Death in Vogue

=============================================================================

By:  Deathstars
Album: Termination Bliss

Tabbed by: John Moores
mooresjw@email.uc.edu

Drop C Tuning (CGCFAD)

* = Palm Mute
@ = Pinched harmonic
x = muted
~ = bend like vibrato

Intro.

0:09

|-------------------------------------------------------|
|-------------------------------------------------------|
|-------------------------------------------------------|
|------5---7-------------5---7----8---7---0-------------|
|------3---5-------------3---5----8---7---0-------------|
|----------0-----------------0----8---7---0-------------|



0:24

|-------------------------------------------------------------------------|
|-------------------------------------------------------------------------|
|-------------------------------------------------------------------------|
|-------------------------------------------------------------------------|  x2
|-----\-0-0-----0----0--0-0-0---0--0----8-8--8--8----5-5---5--5-----------|
|-----\-0-0-----0----0--0-0-0---0--0----8-8--8--8----5-5---5--5---3*------|


Verse 1

0:38

|--------------------------------------------------|
|--------------------------------------------------|
|--------------------------------------------------|
|--------------------------------------------------| x2
|----0-0-------------------------------------------|
|----0-0-------------------------------------------|


0:53

|-------------------------------------------------------------------------|
|-------------------------------------------------------------------------|
|-------------------------------------------------------------------------|
|-------------------------------------------------------------------------|  x2
|-----\-0-0-----0----0--0-0-0---0--0----8-8--8--8----5-5---5--5-----------|
|-----\-0-0-----0----0--0-0-0---0--0----8-8--8--8----5-5---5--5---3*------|



Verse 2

1:06

|--------------------------------------------------|
|--------------------------------------------------|
|--------------------------------------------------|
|--------------------------------------------------| x2
|----0-0----------8-8------------------------------|
|----0-0----------8-8------------------------------|



1:21

|-------------------------------------------------------------------------|
|-------------------------------------------------------------------------|
|-------------------------------------------------------------------------|
|-------------------------------------------------------------------------|  x2
|-----\-0-0-----0----0--0-0-0---0--0----8-8--8--8----5-5---5--5-----------|
|-----\-0-0-----0----0--0-0-0---0--0----8-8--8--8----5-5---5--5---3*------|



1:37

(this is really only the bass playing this...)
|--------------------------------------------------|
|--------------------------------------------------|
|--------------------------------------------------|
|--------------------------------------------------| x2
|----0-----3------8-----5--------------------------|
|----0-----3------8-----5--------------------------|


Verse 3

1:50


|--------------------------------------------------|
|--------------------------------------------------|
|--------------------------------------------------|
|--------------------------------------------------| x2
|----0-0----------8-8------------------------------|
|----0-0----------8-8------------------------------|


2:05

|-------------------------------------------------------------------------|
|-------------------------------------------------------------------------|
|-------------------------------------------------------------------------|
|-------------------------------------------------------------------------|  x2
|-----\-0-0-----0----0--0-0-0---0--0----8-8--8--8----5-5---5--5-----------|
|-----\-0-0-----0----0--0-0-0---0--0----8-8--8--8----5-5---5--5---3*------|


2:20

|--------------------------------------------------|
|--------------------------------------------------|
|--------------------------------------------------|
|--------------------------------------------------| x2
|----0-----3------8-----5--------------------------|
|----0-----3------8-----5--------------------------|


|--------------------------------------------------|
|--------------------------------------------------|
|--------------------------------------------------|
|--------------------------------------------------| x2
|----0-----3------8-----5--------------------------|
|----0-----3------8-----5-------8--7--5------------|
                                *  *  *



2:51

|--------------------------------------------------|
|--------------------------------------------------|
|--------------------------------------------------|
|--------------------------------------------------| x3
|----8-8--8--7--0-0--0-0----12--10---10-10---7-----|
|----8-8--8--7--0-0--0-0----12--10---10-10---7-----|


|--------------------------------------------------|
|--------------------------------------------------|
|--------------------------------------------------|
|--------------------------------------------------| 
|----8-8--8--7--0-0--0-0----12--10---10-10---7---5-|
|----8-8--8--7--0-0--0-0----12--10---10-10---7---5-|


Verse 4
3:24


|--------------------------------------------------|
|--------------------------------------------------|
|--------------------------------------------------|
|--------------------------------------------------|
|----0-------3--------8------3-5-------------------|
|----0-------3--------8------3-5-------------------|


|--------------------------------------------------|
|--------------------------------------------------|
|--------------------------------------------------|
|--------------------------------------------------| x3
|----0-----3------8-----5--------------------------|
|----0-----3------8-----5-------8--7--5------------|
                                *  *  *

End
4:06

|--------------------------------------------------|
|--------------------------------------------------|
|-----------------5---7----------------------------|
|---1-------------5---7----------------------------|
|---1-------------3---5----------------------------|
|---1----------------------------------------------|




=============================================================================

Track 11  	       Termination Bliss

=============================================================================

By:  Deathstars
Album: Termination Bliss

Tabbed by: John Moores
mooresjw@email.uc.edu

Drop C Tuning (CGCFAD)

* = Palm Mute
@ = Pinched harmonic
x = muted
~ = bend like vibrato

Intro/Verse
0:13
|---------------------------------------------------------|
|---------------------------------------------------------|
|---------------------------------------------------------|
|---------------------4---------------------------9--7--9-| x4
|---4-4---4-2-4--0-0--2--2--4-4--4-2-4--0--0-0-0--9--7--9-|
|---4-4---4-2-4--0-0-----2--4-4--4-2-4--0--0-0-0--9--7--9-|
    * *   * * *  * *  *  *  * *  * * *  *  * * *  *  *  *

Chorus
0:41
|---------------------------------------------------------|
|---------------------------------------------------------|
|-------------------4---------------------4---------------|
|--0----4-----2-----4------0----4----2----4---------------|
|--0----4-----2-----2------0----4----2----2---------------|
|--0----4-----2------------0----4----2--------------------|


Verse 2
1:00
|---------------------------------------------------------|
|---------------------------------------------------------|
|---------------------------------------------------------|
|---------------------4---------------------------9--7--9-| x3
|---4-4---4-2-4--0-0--2--2--4-4--4-2-4--0--0-0-0--9--7--9-|
|---4-4---4-2-4--0-0-----2--4-4--4-2-4--0--0-0-0--9--7--9-|
    * *   * * *  * *  *  *  * *  * * *  *  * * *  *  *  *

Chorus
1:29
|---------------------------------------------------------|
|---------------------------------------------------------|
|-------------------4---------------------4---------------|
|--0----4-----2-----4------0----4----2----4---------------|
|--0----4-----2-----2------0----4----2----2---------------|
|--0----4-----2------------0----4----2--------------------|


Bridge
1:50
|---------------------------------------------------------|
|---------------------------------------------------------|
|---------------------------------------------------------|
|-------------------------9-9---9--11-9--7-7--7-7-7-------| x2
|---9--9---9-7--4-4--4-7--7-7---7--9--7--5-5--5-5-5-------|
|---9--9---9-7--4-4--4-7----------------------------------|
    *  *   * *  * *  * *  * *   *  *  *  * *  * * * 


Verse 3
2:08
|---------------------------------------------------------|
|---------------------------------------------------------|
|---------------------------------------------------------|
|---------------------------------------------------------|
|---4-4---------0-0------4-4------------------------------|
|---4-4---------0-0------4-4------------------------------|
    * *         * *      * * 


|---------------------------------------------------------|
|---------------------------------------------------------|
|---------------------------------------------------------|
|---------------------4-----------------------9-9-9--7-7--| 
|---4-4---4-2-4--0-0--2--2--4-4-----0--0-0-0--9-9-9--7-7--|
|---4-4---4-2-4--0-0-----2--4-4-----0--0-0-0--9-9-9--7-7--|
    * *   * * *  * *  *  *  * *     *  * * *  * * *  * *

Chorus
2:27

|---------------------------------------------------------|
|---------------------------------------------------------|
|-------------------4---------------------4---------------|
|--0----4-----2-----4------0----4----2----4---------------|
|--0----4-----2-----2------0----4----2----2---------------|
|--0----4-----2------------0----4----2--------------------|


|---------------------------------------------------------|
|---------------------------------------------------------|
|-------------------4-------------------------------------|
|--0----4-----2-----4------0----4----2----4-4-4-4---------|
|--0----4-----2-----2------0----4----2----2-2-2-2---------|
|--0----4-----2------------0----4----2--------------------|
                                          * * * *



            
            
Suggest correction
Creating personal tab
Creating personal tab
You can edit any tab online and save it as your Personal.

You can edit, replace or remove any tab part or add personal notes – all changes will be seen only by you.

Personal tabs can be accessed anytime from any device, even offline.
Learn more »
Give kudos to tab author, rate the tab!
1 2 3 4 5
comments
print report bad tab
2 comments total.
0 reply
I0PA 867 Jun 12, 2009 04:27 AM

great work, man

0 reply
Drool_Mouse 3,228 Jul 06, 2009 10:39 AM

thanks

guest
You may want to rate the tab now too:
select rating
Wanna post a correction for this tab? Suggest correction