Oops, an error
Loading. Please wait.

The Fuel Ignites tab

version 2
version 2

Whole song

Interactive

891 views 1 this week
2 commentsread comments
1 2 3 4 5
2 more votes to show rating
add to favorites
×
Save as Personal and add changes to this tab that will be seen only by you. Learn more ›
×
You can save this tab as Personal to edit and correct it or add notes. All changes will be seen only by you. Learn more »
launch autoscroll
font size
0
reset
how to read this tab
guitar tuner
edit
Autoscroll
slow
fast
+/-
esc
set tempo
stop
Author
-------------------------------------------------------------------------------
                             Deathstars - The Fuel Ignites
-------------------------------------------------------------------------------
Tabbed by: Daryl Toopi

Tuning: Drop C (CGCFAd)

                                 * = Palm Mute



     Intro (0:20-0:34)

D|--------------------------------------------------------------------|
A|--------------------------------------------------------------------|
F|--------------------------------------------------------------------|
C|---7--77--7--77--7777--77--7222--3--33--3--33--3555--55--5555-------|
G|---7--77--7--77--7777--77--7222--3--33--3--33--3555--55--5555-------|
C|---7--77--7--77--7777--77--7222--3--33--3--33--3555--55--5555-------|2x
        **     **        **           **     **        **



Verse 1 nothing


     Pre Chorus (1:00-1:13)

D|--------------------------------------------------------------------|
A|--------------------------------------------------------------------|
F|------7----------------------------------7--------------------------|
C|---3--7-5--7--77-7-77-7777--77--7222--3--7-5--2--22-----------------|
G|---3--5-5--7--77-7-77-7777--77--7222--3--5-5--2--22-----------------|
C|---3----5--7--77-7-77-7777--77--7222--3----5--2--22-----------------|
                **   **       **               




chorus (1:14-1:29)

D|---------------------------------------------------------------------|
A|---------------------------------------------------------------------|
F|---------------------------------------------------------------------|
C|-77777777-22222222-33333333-55555555---------------------------------| 
G|-77777777-22222222-33333333-55555555---------------------------------|
C|-77777777-22222222-33333333-55555555---------------------------------|--------|
                                                                              2x|
D|---------------------------------------------------------------------|--------|
A|---------------------------------------------------------------------|
F|---------------------------------------------------------------------|
C|-77777777-22222222-33333333--5-55--5-55------------------------------| 
G|-77777777-22222222-33333333--5-55--5-55------------------------------|
C|-77777777-22222222-33333333--5-55--5-55------------------------------|
                               *     *



verse 2 (1:29-1:55)

D|---------------------------------------------------------------------|
A|---------------------------------------------------------------------|
F|---------------------------------------------------------------------|
C|-----------------7-------------------7-------------------------------|
G|-----------------7-------------------7-------------------------------|
C|-----------------7-------------------7-------------------------------|






pre-chorus (1:55-2:09)

D|--------------------------------------------------------------------|
A|--------------------------------------------------------------------|
F|------7----------------------------------7--------------------------|
C|---3--7-5--7--77-7-77-7777--77--7222--3--7-5--2--22-----------------|
G|---3--5-5--7--77-7-77-7777--77--7222--3--5-5--2--22-----------------|
C|---3----5--7--77-7-77-7777--77--7222--3----5--2--22-----------------|
                **   **       **               



chorus (2:10-2:38)

D|---------------------------------------------------------------------|
A|---------------------------------------------------------------------|
F|---------------------------------------------------------------------|
C|-77777777-22222222-33333333-55555555---------------------------------| 
G|-77777777-22222222-33333333-55555555---------------------------------|
C|-77777777-22222222-33333333-55555555---------------------------------|--------|
                                                                              2x|
D|---------------------------------------------------------------------|--------|
A|---------------------------------------------------------------------|
F|---------------------------------------------------------------------|
C|-77777777-22222222-33333333--5-55--5-55------------------------------| 
G|-77777777-22222222-33333333--5-55--5-55------------------------------|
C|-77777777-22222222-33333333--5-55--5-55------------------------------|
                               *     *




bridge [intro] (2:38-2:52)

D|--------------------------------------------------------------------|
A|--------------------------------------------------------------------|
F|--------------------------------------------------------------------|
C|---7--77--7--77--7777--77--7222--3--33--3--33--3555--55--5555-------|
G|---7--77--7--77--7777--77--7222--3--33--3--33--3555--55--5555-------|
C|---7--77--7--77--7777--77--7222--3--33--3--33--3555--55--5555-------|2x
        **     **        **           **     **        **



Interlude = nothing




pre-chorus (3:06-3:18)

D|--------------------------------------------------------------------|
A|--------------------------------------------------------------------|
F|------7----------------------------------7--------------------------|
C|---3--7-5--7--77-7-77-7777--77--7222--3--7-5--2--22-----------------|
G|---3--5-5--7--77-7-77-7777--77--7222--3--5-5--2--22-----------------|
C|---3----5--7--77-7-77-7777--77--7222--3----5--2--22-----------------|
                **   **       **               



chorus (3:19-3:48) 

D|---------------------------------------------------------------------|
A|---------------------------------------------------------------------|
F|---------------------------------------------------------------------|
C|-77777777-22222222-33333333-55555555---------------------------------| 
G|-77777777-22222222-33333333-55555555---------------------------------|
C|-77777777-22222222-33333333-55555555---------------------------------|--------|
                                                                              2x|
D|---------------------------------------------------------------------|--------|
A|---------------------------------------------------------------------|
F|---------------------------------------------------------------------|
C|-77777777-22222222-33333333--5-55--5-55------------------------------| 
G|-77777777-22222222-33333333--5-55--5-55------------------------------|
C|-77777777-22222222-33333333--5-55--5-55------------------------------|
                               *     *


                    daryl_toopi666@hotmail.com
Suggest correction
Creating personal tab
Creating personal tab
You can edit any tab online and save it as your Personal.

You can edit, replace or remove any tab part or add personal notes – all changes will be seen only by you.

Personal tabs can be accessed anytime from any device, even offline.
Learn more »
Give kudos to tab author, rate the tab!
1 2 3 4 5
comments
print report bad tab
2 comments total.
0 reply
Drool_Mouse 3,228 Jul 02, 2009 05:53 PM

Looks great except the chorus sounds better like this

D|---------------------------------------------------------------------|
A|---------------------------------------------------------------------|
F|---------------------------------------------------------------------|
C|-77777777-33333333-00000000-55555555---------------------------------|
G|-77777777-33333333-00000000-55555555---------------------------------|
C|-77777777-33333333-00000000-55555555---------------------------------|--------|
2x|
D|---------------------------------------------------------------------|--------|
A|---------------------------------------------------------------------|
F|---------------------------------------------------------------------|
C|-77777777-22222222-33333333--5-55--5-55------------------------------|
G|-77777777-22222222-33333333--5-55--5-55------------------------------|
C|-77777777-22222222-33333333--5-55--5-55------------------------------|
* *

0 reply
Drool_Mouse 3,228 Jul 02, 2009 05:54 PM

oops, the pattern of 7-3-0-5 continues for the second line too. other than that, great tab!

guest
You may want to rate the tab now too:
select rating
Wanna post a correction for this tab? Suggest correction