Oops, an error
Loading. Please wait.

The Last Ammunition bass

version 1
version 1

Whole song

Interactive

1,227 views 1 this week
2 commentsread comments
1 2 3 4 5
3 more votes to show rating
add to favorites
×
Save as Personal and add changes to this tab that will be seen only by you. Learn more ›
×
You can save this tab as Personal to edit and correct it or add notes. All changes will be seen only by you. Learn more »
launch autoscroll
font size
0
reset
guitar tuner
edit
Autoscroll
slow
fast
+/-
esc
set tempo
stop
Author
Difficulty
--------------------------------------------------------------------------
			     The Last Ammunition- Deathstars
--------------------------------------------------------------------------

Tabbed By : Necrotic
e-mail: joelschwallier@gmail.com

Tuning: Standard
Intro- bass comes in at 13 seconds
G|----------------------------------------------------------------------|
D|----------------------------------------------------------------------|
A|----------------------------------------------------------------------|
E|0-0-0-3-2-1-----------------------------------------------------------|
Verse
G|----------------------------------------------------------------------|
D|----------------------------------------------------------------------|
A|----------------------------------------------------------------------|x3
E|0-0-1-0-0-1--1--0-0-1-0-0-3--3----------------------------------------|

G|----------------------------------------------------------------------|
D|----------------------------------------------------------------------|
A|----------------------------------------------------------------------|
E|0-0-1-0-0-1--1--0--0--0-3--2--1---------------------------------------|

G|~REST~----------------------------------------------------------------|
D|~REST~----------------------------------------------------------------|
A|~REST~----------------------------------------------------------------|x4
E|~REST~-----0-0-1-0-0-1--1--0-0-1-0-0-3--3-----------------------------|
Pre-Chorus
G|----------------------------------------------------------------------|
D|----------------------------------------------------------------------|
A|----------------------------------------------------------------------|
E|0-0-0-0-0-0-0-0-3-3-3-3-3-3-3-3-0-0-0-0-0-0-0-0-3---------------------|
Chorus
G|----------------------------------------------------------------------|
D|----------------------------------------------------------------------|
A|----------------------------------------------------------------------|
E|0-0-0-0-0-0-0-0-0-0-0-0-0-3-2-0-1-1-1-1-1-1-1-1-1-1-1-1-1-1-1-1-------|

G|----------------------------------------------------------------------|
D|----------------------------------------------------------------------|
A|----------------------------------------------------------------------|
E|0-0-0-0-0-0-0-0-0-0-0-0-0-3-2-0-1-1-1-1-1-1-1-1-0-0-0-3-2-1-----------|
Verse
G|----------------------------------------------------------------------|
D|----------------------------------------------------------------------|
A|----------------------------------------------------------------------|x3
E|0-0-1-0-0-1--1--0-0-1-0-0-3--3----------------------------------------|

G|----------------------------------------------------------------------|
D|----------------------------------------------------------------------|
A|----------------------------------------------------------------------|
E|0-0-1-0-0-1--1-0-0-0-3-2-1--------------------------------------------|

G|~REST~----------------------------------------------------------------|
D|~REST~----------------------------------------------------------------|
A|~REST~----------------------------------------------------------------|x3
E|~REST~-----0-0-1-0-0-1--1--0-0-1-0-0-3--3-----------------------------|

G|~REST~----------------------------------------------------------------|
D|~REST~----------------------------------------------------------------|
A|~REST~----------------------------------------------------------------|
E|~REST~-----0-0-1-0-0-1--1-3-2-1-3-2-1---------------------------------|
Pre-Chorus
G|----------------------------------------------------------------------|
D|----------------------------------------------------------------------|
A|----------------------------------------------------------------------|
E|0-0-0-0-0-0-0-0-3-3-3-3-3-3-3-3-0-0-0-0-0-0-0-0-3---------------------|
Chorus
G|----------------------------------------------------------------------|
D|----------------------------------------------------------------------|
A|----------------------------------------------------------------------|
E|0-0-0-0-0-0-0-0-0-0-0-0-0-3-2-0-1-1-1-1-1-1-1-1-1-1-1-1-1-1-1-1-------|

G|----------------------------------------------------------------------|
D|----------------------------------------------------------------------|
A|----------------------------------------------------------------------|
E|0-0-0-0-0-0-0-0-0-0-0-0-0-3-2-0-1-1-1-1-1-1-1-1-0-0-0-3-2-1-----------|
Verse
G|----------------------------------------------------------------------|
D|----------------------------------------------------------------------|
A|----------------------------------------------------------------------|x3
E|0-0-1-0-0-1--1--0-0-1-0-0-3--3----------------------------------------|

G|----------------------------------------------------------------------|
D|----------------------------------------------------------------------|
A|----------------------------------------------------------------------|
E|0-0-1-0-0-1--1--0--0--0-3--2--1---------------------------------------|
Bridge
G|---------------------------~REST~-------------------------------------|
D|---------------------------~REST~-------------------------------------|
A|---------------------------~REST~-------------------------------------|
E|3---2---1---0--------------~REST~-------------------------------------|
Chorus
G|----------------------------------------------------------------------|
D|----------------------------------------------------------------------|
A|----------------------------------------------------------------------|x5
E|0-0-0-0-0-0-0-0-0-0-0-0-0-3-2-0-1-1-1-1-1-1-1-1-1-1-1-1-1-1-1-1-------|

G|----------------------------------------------------------------------|
D|----------------------------------------------------------------------|
A|----------------------------------------------------------------------|
E|0-0-0-0-0-0-0-0-0-0-0-0-0-3-2-0-1-1-1-1-1-1-1-1-0-0-0-3-2-1-----------|


And that's it, I'm not exactly sure about the chorus 
but the rest of it sounds ok to me.


| /  slide up
| \  slide down
| h  hammer-on
| p  pull-off
| ~  vibrato
| +  harmonic
| x  Mute note
===========================================================================
Suggest correction
Creating personal tab
Creating personal tab
You can edit any tab online and save it as your Personal.

You can edit, replace or remove any tab part or add personal notes – all changes will be seen only by you.

Personal tabs can be accessed anytime from any device, even offline.
Learn more »
Give kudos to tab author, rate the tab!
1 2 3 4 5
comments
print report bad tab
2 comments total.
0 reply
Satan Man 1,286 Sep 21, 2008 07:54 AM

They play in CGCF

0 reply
Necrotic 1,216 Sep 27, 2008 04:12 AM

Should I retab the whole song? because this was my very first tab way way back long ago, and I've tabbed over 20 songs since then so I could probably get better tab for it if anyone wanted.

guest
You may want to rate the tab now too:
select rating
Wanna post a correction for this tab? Suggest correction