Oops, an error
Loading. Please wait.

Tongues bass

version 1
version 1

Whole song

Interactive

1,085 views 1 this week
no commentswrite comment
1 2 3 4 5
2 more votes to show rating
add to favorites
×
Save as Personal and add changes to this tab that will be seen only by you. Learn more ›
×
You can save this tab as Personal to edit and correct it or add notes. All changes will be seen only by you. Learn more »
launch autoscroll
font size
0
reset
guitar tuner
edit
Autoscroll
slow
fast
+/-
esc
set tempo
stop
~ = Bend note
# = let ring at end


Intro
             Prt1                                                    prt2                        prt3
|--------------------------------------- |----------------------------------|-----|
|--------------------------------------- |----------------------------------|-----|
|--------------------------------------- |----------------------------------|-----|
|-0-0-0-0-0-0-3~-0-0-0-0-0-0-3~~ |-11111-00000-22222-33333|-0#--------------------|


Verse: the start of the verses don’t play bass

|-----------------------------------------|
|-----------------------------------------|
|-----------------------------------------|
|-11111----11111----11111----1111---------|


Bridge
            Prt1                                           prt2 : at ““Now come and take my hand”
|----------------------------------------|-------------|
|----------------------------------------|--------------|
|----------------------------------------|---1-2-3-1----|
|-11111-0----22222-0----11111-0--|----------------------|


Chorus

|--------------------------------------------------------------------------|
|--------------------------------------------------------------------------|
|--------------------------------------------------------------------------|
|-11111-00000-22222-33333--11111-00000-22222-33333-------------------------|

Chorus end
  Prt1       prt2
|-------|------------------------------------------------------------------------------|
|-------|------------------------------------------------------------------------------|
|-------|------------------------------------------------------------------------------|
|-0-0--|-0-0-0-0-0-0-3~-0-0-0-0-0-0-3~~-0-0-0-0-0-0-3~-0-0-0-0-0-0-33------------------|


Chorus end v2
  Prt1                    prt2                    prt3
|--------|-----------------------------|----|
|--------|-----------------------------|----|
|--------|-----------------------------|----|
|-44-11|-44-111-44-11-44-111-0|-00----------|

Order:
Intro prt1 x2
Intro prt2 x1
Intro prt3x1
Verse x1
Bridge prt1 x1
Bridge prt2 x1
Chorus x2
Chorus end prt1 x1
Chorus end prt2 x 1
Verse x1
Bridge prt1 x1
Bridge prt2 x1
Chorus x1
Chorus x1
Chorus end v2 prt1 x1
Chorus end prt2 x2
Bridge prt2 x1
Chorus x2
Chorus end v2  prt1 x1
Chorus end v2  prt3 x1
Suggest correction
Creating personal tab
Creating personal tab
You can edit any tab online and save it as your Personal.

You can edit, replace or remove any tab part or add personal notes – all changes will be seen only by you.

Personal tabs can be accessed anytime from any device, even offline.
Learn more »
Give kudos to tab author, rate the tab!
1 2 3 4 5
comments
print report bad tab
guest
You may want to rate the tab now too:
select rating
Wanna post a correction for this tab? Suggest correction