Oops, an error
Loading. Please wait.

Forgiven Tab

4,291 views 6 this week
2 commentsread comments
1 2 3 4 5
excellent!
x 3
add to favorites
launch autoscroll
font size
0
reset
how to read this tab
guitar tuner
Tab Pro tools
  • play this tab
  • loop segment
  • change instrument
  • show fretboard
  • metronome
×
Best way to learn
"Forgiven"
Autoscroll
slow
fast
+/-
esc
set tempo
stop
Contributor
Difficulty
Capo
intermediate
5th fret
--------------------------------------------------------------------------
                             Forgiven - Deb Talan
--------------------------------------------------------------------------
Tabbed by: deHufter
Email: kurtkill@hotmail.com
Transcribed from: http://www.youtube.com/watch?v=oSPbxoElZOA

Tuning: standard

Capo on 5th fret

Intro: (play twice)
e|--0---------0----------3----------2-----0h2-2h3---3---------3----------|
B|-------3---------3----------3--------------------------3----------3----|
G|-----0---0-----0---0------2---2------2---------------0---0------0---0--|
D|-----------------------0----------0------------------------------------|
A|--3---------3-------------------------------------2---------2----------|
E|-----------------------------------------------------------------------|

e|-----------------------------------------------------------------------|
B|--3-----------3--------------------------------------------------------|
G|--------0-----------0--------------------------------------------------|
D|------0---0-------0---0------------------------------------------------|
A|--2/3---------2/3------------------------------------------------------|
E|-----------------------------------------------------------------------|

Verse: (play twice)
e|--0----------0-----------3---------2----------0----------0-------------|
B|-------3-----------3----------3---------3----------0----------0--------|
G|-----0---0-------0---0------2---2-----2---2------0---0------0---0------|
D|-------------------------0---------0-----------------------------------|
A|--3----------3---------------------------------------------------------|
E|----------------------------------------------0----------0-------------|

e|--3--------3----------3---------3----------3----------3--------2-------|
B|------3---------3----------3---------3----------3---------3---------3--|
G|----0---0-----0---0------0---0-----0---0------0---0-----2---2-----2---2|
D|------------------------------------------------------0--------0-------|
A|----------------------3---------2----------3---------------------------|
E|--3--------3-----------------------------------------------------------|

Chorus:
e|--0---------0----------3--------2----------3---------3-----------------|
B|-------3---------3----------3--------3----------3---------3------------|
G|-----0---0-----0---0------2---2----2---2------0---0-----0---0----------|
D|-----------------------0---------0-------------------------------------|
A|--3---------3----------------------------------------------------------|
E|-------------------------------------------3---------3-----------------|

e|--0---------0---------0----------0-------------------------------------|
B|-------2---------2---------3----------3--------------------------------|
G|-----2---2-----2---2-----0---0------2---2------------------------------|
D|---------------------------------0-------------------------------------|
A|--0---------0---------3------------------------------------------------|
E|-----------------------------------------------------------------------|


e|--3----------0---------0----------0------------------------------------|
B|-------3----------2---------3----------3-------------------------------|
G|-----0---0------2---2-----0---0------2---2-----------------------------|
D|----------------------------------0------------------------------------|
A|-------------0---------3-----------------------------------------------|
E|--3--------------------------------------------------------------------|

And wait...
e|--3---------3---------0---------0---------0---------0------------------|
B|-------3---------3---------0---------2---------3---------3-------------|
G|-----0---0-----0---0-----0---0-----2---2-----0---0-----0---0-----------|
D|-----------------------------------------------------------------------|
A|------------------------------------------3---------3------------------|
E|--3---------2---------0---------0--------------------------------------|

e|--0---------0-----0h2-2h3-----------------------------------------------|
B|-------3----------------------------------------------------------------|
G|-----2---2-----2--------------------------------------------------------|
D|--0---------0-----------------------------------------------------------|
A|------------------------------------------------------------------------|
E|------------------------------------------------------------------------|

Little bridge:
e|--3---------3------0----------------------------------------------------|
B|-------3---------3----3-----------3-------------------------------------|
G|-----0---0-----0-------------0-----------0------------------------------|
D|---------------------------0---0-------0---0----------------------------|
A|--2---------2---------2/3---------2/3-----------------------------------|
E|------------------------------------------------------------------------|

Then repeat verse twice + chorus

And it's time...

e|--0---------0---------3---------3----------3---------3------------------|
B|-------0---------0---------3---------3----------3---------3-------------|
G|-----0---0-----0---0-----0---0-----0---0------0---0-----0---0-----------|
D|------------------------------------------------------------------------|
A|-------------------------------------------3---------3------------------|
E|--0---------0---------3---------3---------------------------------------|

e|--0---------0----------0---------0--------0--------0--------------------|
B|-------0---------0----------3--------3--------3--------3----------------|
G|-----0---0-----0---0------0---0----0---0----0---0----2---2--------------|
D|---------------------------------------------------0--------------------|
A|-----------------------3---------2--------3-----------------------------|
E|--0---------0-----------------------------------------------------------|

e|--0---------0---------0---------0---------------------------------------|
B|-------3---------3---------3--------------------------------------------|
G|-----0---0-----0---0-----0---0------------------------------------------|
D|--------------------------------0---------------------------------------|
A|--3---------2---------3-------------------------------------------------|
E|------------------------------------------------------------------------|

Then repeat chorus with little bridgy thing and end with: 

e|--0---------0-----0h2-2h3--3~~------------------------------------------|
B|-------3-------------------3~~------------------------------------------|
G|-----0---0-----2-----------0~~------------------------------------------|
D|------------0--------------0~~------------------------------------------|
A|--3------------------------2~~------------------------------------------|
E|---------------------------3~~------------------------------------------|
comments
We did not receive enough feedback on this tab! Please rate:
print report bad tab
1 2 3 4 5
2 comments total.
+1 reply
dysti wrote on September 14 2009, 05:29 pm

the way that ms. talan plays this is with the capo on the 3rd fret (Eb i think). she also (usually) strums the root on every downbeat instead of every other beat as the tab indicates.

0 reply
deHufter wrote on September 16 2009, 06:27 am

That's possible, no clue. I transcribed it from this guy:
http://www.youtube.com/watch?v=oSPbxoElZOA

I want to post or [tab]
guest
You may want to rate the tab now too:
select rating
Please do not post tabs as comments. Select "correction" instead!