Oops, an error
Loading. Please wait.

First Date ukulele

90 views 1 this week
no commentswrite comment
1 2 3 4 5
2 more votes to show rating
add to favorites
×
Save as Personal and add changes to this tab that will be seen only by you. Learn more ›
×
You can save this tab as Personal to edit and correct it or add notes. All changes will be seen only by you. Learn more »
launch autoscroll
font size
0
reset
transpose
0
reset
simplify chords
display chords
guitar tuner
edit
Autoscroll
slow
fast
+/-
esc
set tempo
stop
Author
Strumming
There is no strumming pattern for this song yet. and get +5 IQ
Deborah Lurie - First Date
From the soundtrack for the movie Dear John
Transcribed by Robert from Astlessons

So this is half of the song arranged for ukulele, I'll update it later on with the rest. 
Some parts may be hard to play on a bigger ukulele since I transcribed it using a concert. 
The time signature is 6/8, but the easiest way to count is to six twice on each bar instead. 


  Csus4                     C7sus4
|-------3-----------1-----|-------3---------1---0---|
|-1-----------------------|-1-----------------------|
|-------------------------|-------------------------|
|-------------0-----------|-------------0-----------|

  Csus4                     Dm7
|-------3-----------1-----|-------3-----------7-----|
|-1-----------------------|-1-----------3-----------|
|-------------------------|-2-----------0-----------|
|-------------0-----------|-------------------------|

  Csus4       Gm7           Dm7
|-------3-----------8-----|-------3---------3-------|
|-1-----------------6-----|-1-----------3-------0---|
|-------------------------|-2-----------0-----------|
|-------------0-----------|-------------------------|

  Csus4       Gm7           C           Dm
|-------3-----0-----8-----|-------7-----------8-----|
|-1-----------------------|-----3-----------5-------|
|-------------------------|-0-----------2-----------|
|-------------------------|-------------------------|

  Bb                        Gm7         F5
|-------5-----------------|-------10----------8-----|
|-6-----------8-----------|-0---8-----------8-------|
|-----5-----------5-------|-------------5-----------|
|-------------------------|---0---------------------|

  Bb
|-------5-----3-------------------|
|-----6-----------1---------------|
|-2-------------------------------|
|---------------------------------|

  C           Dm            Bb          C
|-------7-----------8-----|-----5---8---------------|
|-----3-----------5-------|-6-----------3---1---0---|
|-0-----------2-----------|---5---------0-----------|
|-------------------------|-----------------0-------|

  Csus4                     Dm7
|-------3-----3-----3-----|-3-----3-----3-----3-----|
|-1---1-----------1-------|-----1-----------1-------|
|-------------------------|-2-----------------------|
|-------------------------|-------------------------|



//Robert

            
            
Suggest correction
Creating personal tab
Creating personal tab
You can edit any tab online and save it as your Personal.

You can edit, replace or remove any tab part or add personal notes – all changes will be seen only by you.

Personal tabs can be accessed anytime from any device, even offline.
Learn more »
Give kudos to tab author, rate the tab!
1 2 3 4 5
comments
print report bad tab
guest
You may want to rate the tab now too:
select rating
Wanna post a correction for this tab? Suggest correction