Oops, an error
Loading. Please wait.

Babylons Pride bass

version 1
version 1

Whole song

Interactive

919 views 3 this week
no commentswrite comment
1 2 3 4 5
3 more votes to show rating
add to favorites
×
Save as Personal and add changes to this tab that will be seen only by you. Learn more ›
×
You can save this tab as Personal to edit and correct it or add notes. All changes will be seen only by you. Learn more »
launch autoscroll
font size
0
reset
guitar tuner
edit
Autoscroll
slow
fast
+/-
esc
set tempo
stop
Band- Decapitated
Song- Babylons Pride

F||-----------------------|-------------------------------|
C||-----------------------|-------------------------------|
G||---------7-------------|-------------------------------|
D||--------------6--------|--5-5-5-5-5-5-5-5-4-4-4-4-4----|
A||--5-5-5----------------|-------------------------------|


                                                                     
|--------------------------------|----------------------------------|
|*-------------------------------|----------------------------------|
|---7-7-7--4h-6--1-1-1-1---------|--------------------------1-1-1-1-|
|*-------------------------------|--0-0-0-0-4-4-4-4-3-3-3-3---------|
|------------------------5-5-5-5-|----------------------------------|


                                                             
-------------------------------|----------------------------|
-------------------------------|----------------------------|
--7-7-7--4h-6--1-1-1-1---------|----------------------------|
-------------------------------|--0-0-0-0-1----0-0-0-0-4----|
-----------------------5-5-5-5-|----------------------------|


                                                                   
-------------------------------|----------------------------------|
-------------------------------|----------------------------------|
--7-7-7--4h-6--1-1-1-1---------|--------------------------1-1-1-1-|
-------------------------------|--0-0-0-0-4-4-4-4-3-3-3-3---------|
-----------------------5-5-5-5-|----------------------------------|


                                                                     
-------------------------------|-----------------------------------||
-------------------------------|----------------------------------*||
--7-7-7--4h-6--1-1-1-1---------|-----------------------------------||
-------------------------------|--0-0-0-0-1-1-1-1-4-4-4-4-3-3-3-3-*||
-----------------------5-5-5-5-|-----------------------------------||


                                                                              
----------------------------------|-------------------|----------------------|
----------------------------------|-------------------|----------------------|
----------------------------------|-------------------|----------------------|
--0-0-0-0-1-1-1-1-4-4-4-4-3-3-3-3-|-------------------|-------1----4----3----|
----------------------------------|--5----------------|--5-------------------|


                                                             
------||---------------------------|------------------------|
------||*--------------------------|------------------------|
------||---------------------------|------------------------|
------||*--0--0--4--0--3--4--0--0--|--0----1----4--0--3--4--|
------||---------------------------|------------------------|


                                                                                
--------------------------|------------------------||--------------------------|
--------------------------|-----------------------*||--------------------------|
--------------------------|------------------------||--------------------------|
--3--4--0--0--0--0--1--4--|--3--4-----------------*||--0--0--4--0--3--4--0--0--|
--------------------------|--------5--5--5---------||--------------------------|


                                                                            
------------------------|--------------------------|-----------------------|
------------------------|--------------------------|-----------------------|
------------------------|--------------------------|-----------------------|
--0----1----4--0--3--4--|--3--4--0--0--0--0--1--4--|--3--4-----------------|
------------------------|--------------------------|--------5--5--5--------|


                                                                               
--------------------------|------------------------|--------------------------|
--------------------------|------------------------|--------------------------|
--------------------------|------------------------|--------------------------|
--0--0--4--0--3--4--0--0--|--0----1----4--0--3--4--|--3--4--0--0--0--0--1--4--|
--------------------------|------------------------|--------------------------|


                                                              
-------------------------|------||---------------------------|
-------------------------|------||*--------------------------|
-------------------------|------||---------------------------|
--3--4-------------------|------||*--0--0--4--0--3--4--0--0--|
--------5--5--5--5--5----|------||---------------------------|


                                                                              
------------------------|--------------------------|------------------------||
------------------------|--------------------------|-----------------------*||
------------------------|--------------------------|------------------------||
--0----1----4--0--3--4--|--3--4--0--0--0--0--1--4--|--3--4-----------------*||
------------------------|--------------------------|--------5--5--5---------||


                                                                                
---------------------------|------------------------|--------------------------|
*--------------------------|------------------------|--------------------------|
---------------------------|------------------------|--------------------------|
*--0--0--4--0--3--4--0--0--|--0----1----4--0--3--4--|--3--4--0--0--0--0--1--4--|
---------------------------|------------------------|--------------------------|


                                                         
------------------------||-------------------|----------|
-----------------------*||-------------------|----------|
------------------------||-------------------|----------|
--3--4-----------------*||-------------------|----------|
--------5--5--5---------||--5----------------|----------|


                                                                   
|------------------------------|----------------------------------|
|*-----------------------------|----------------------------------|
|------------------------------|----------------------------------|
|*-------------6-6-6-6-5-5-6-6-|--5-5-5-5-1-1-1-1-2-2-2-2-4-4-4-4-|
|---5--6--5--------------------|----------------------------------|


                                                              
--------------------------|----------------------------------|
--------------------------|----------------------------------|
--------------------------|----------------------------------|
------------------5-5-5-5-|--4-4-5-5-7-7-7-7-5-5-7-7-8-8-8-8-|
--5----5--6--5------------|----------------------------------|


                                                                 
-----------------------------|----------------------------------|
-----------------------------|----------------------------------|
-----------------------------|----------------------------------|
-------------6-6-6-6-5-5-6-6-|--5-5-5-5-1-1-1-1-2-2-2-2-4-4-4-4-|
--5--6--5--------------------|----------------------------------|


                                                                
--------------------------|-----------------------------------||
--------------------------|----------------------------------*||
--------------------------|-----------------------------------||
------------------5-5-5-5-|--4-4-5-5-7-7-7-7-5-5-7-7-8-8-8-8-*||
--5----5--6--5------------|-----------------------------------||


                                                                    3x
--------------------------------|-----------------------------------||
*-------------------------------|----------------------------------*||
--------7-7-7-7-7-7-7-7-6-6-6-6-|--6-6-6-6-5-5-5-5-5-5-5-5-4-4-4-4--||
*-------------------------------|----------------------------------*||
---5----------------------------|-----------------------------------||


                                                                  
------------------------------|----------------------------------|
*-----------------------------|----------------------------------|
------------------------------|----------------------------------|
*-------------6-6-6-6-5-5-6-6-|--5-5-5-5-1-1-1-1-2-2-2-2-4-4-4-4-|
---5--6--5--------------------|----------------------------------|


                                                              3x
--------------------------|-----------------------------------||
--------------------------|----------------------------------*||
--------------------------|-----------------------------------||
------------------5-5-5-5-|--4-4-5-5-7-7-7-7-5-5-7-7-8-8-8-8-*||
--5----5--6--5------------|-----------------------------------||


                                                         
-------------------------------|------------------------|
*------------------------------|------------------------|
-------------------------------|------------------------|
*----------4--0--3--4----------|--0----1----4--0--3--4--|
---5-5-5-5-------------5-5-5-5-|------------------------|


                                                           
------------------------------|--------------------------||
------------------------------|-------------------------*||
------------------------------|--------------------------||
--3--4------------------1--4--|--3--4-------------------*||
--------5-5-5-5-5-5-5-5-------|--------5-5-5-5-5---------||


                                                                   
-------------------------------|----------------------------------|
-------------------------------|----------------------------------|
--7-7-7--4h-6--1-1-1-1---------|--------------------------1-1-1-1-|
-------------------------------|--0-0-0-0-4-4-4-4-3-3-3-3---------|
-----------------------5-5-5-5-|----------------------------------|


                                                             
-------------------------------|----------------------------|
-------------------------------|----------------------------|
--7-7-7--4h-6--1-1-1-1---------|----------------------------|
-------------------------------|--0-0-0-0-1----0-0-0-0-4----|
-----------------------5-5-5-5-|----------------------------|


                                                                   
-------------------------------|----------------------------------|
-------------------------------|----------------------------------|
--7-7-7--4h-6--1-1-1-1---------|--------------------------1-1-1-1-|
-------------------------------|--0-0-0-0-4-4-4-4-3-3-3-3---------|
-----------------------5-5-5-5-|----------------------------------|


                                                                   
-------------------------------|----------------------------------|
-------------------------------|----------------------------------|
--7-7-7--4h-6--1-1-1-1---------|----------------------------------|
-------------------------------|--0-0-0-0-1-1-1-1-4-4-4-4-3-3-3-3-|
-----------------------5-5-5-5-|----------------------------------|


                                                                               
-------------------|----------------------|------||---------------------------|
-------------------|----------------------|------||*--------------------------|
-------------------|----------------------|------||---------------------------|
-------------------|-------1----4----3----|------||*--0--0--4--0--3--4--0--0--|
--5----------------|--5-------------------|------||---------------------------|


                                                                            3x
------------------------|--------------------------|------------------------||
------------------------|--------------------------|-----------------------*||
------------------------|--------------------------|------------------------||
--0----1----4--0--3--4--|--3--4--0--0--0--0--1--4--|--3--4-----------------*||
------------------------|--------------------------|--------5--5--5---------||


                                                   
------------------||------------------------------|
------------------||*-----------------------------|
------------------||------------------------------|
------------------||*-------------6-6-6-6-5-5-6-6-|
------------------||---5--6--5--------------------|


                                                              
----------------------------------|--------------------------|
----------------------------------|--------------------------|
----------------------------------|--------------------------|
--5-5-5-5-1-1-1-1-2-2-2-2-4-4-4-4-|------------------5-5-5-5-|
----------------------------------|--5----5--6--5------------|


                                   3x                   
-----------------------------------||------------------|
----------------------------------*||------------------|
-----------------------------------||------------------|
--4-4-5-5-7-7-7-7-5-5-7-7-8-8-8-8-*||--2----2--3--2----|
-----------------------------------||------------------|


                                                           
----------------------------------|-----------------------|
----------------------------------|-----------------------|
--5-5-5-5-5-5-5-5-4-4-4-4---------|-----------------------|
--------------------------2-2-2-2-|--2----2--3--2----2----|
----------------------------------|-----------------------|


                                                        
----------------------------------||-------------------|
----------------------------------||*------------------|
--5-5-5-5-5-5-5-5-4-4-4-4---------||-------------------|
--------------------------2-2-2-2-||*--2----2--3--2----|
----------------------------------||-------------------|


                                                           
----------------------------------|-----------------------|
----------------------------------|-----------------------|
--5-5-5-5-5-5-5-5-4-4-4-4---------|-----------------------|
--------------------------2-2-2-2-|--2----2--3--2----2----|
----------------------------------|-----------------------|


                                   2x                         
-----------------------------------||------------------------|
----------------------------------*||*-----------------------|
--5-5-5-5-5-5-5-5-4-4-4-4----------||------------------------|
--------------------------2-2-2-2-*||*--2----2--3--2----2----|
-----------------------------------||------------------------|


                                   3x                                 
-----------------------------------||--------------------------------|
----------------------------------*||*-------------------------------|
--5-5-5-5-5-5-5-5-4-4-4-4----------||--------7-7-7-7-7-7-7-7-6-6-6-6-|
--------------------------2-2-2-2-*||*-------------------------------|
-----------------------------------||---5----------------------------|


                                   3x                         
-----------------------------------||------------------------|
----------------------------------*||*-----------------------|
--6-6-6-6-5-5-5-5-5-5-5-5-4-4-4-4--||------------------------|
----------------------------------*||*--2----2--3--2----2----|
-----------------------------------||------------------------|


                                   3x                                 
-----------------------------------||--------------------------------|
----------------------------------*||*-------------------------------|
--5-5-5-5-5-5-5-5-4-4-4-4----------||--------3-3-3-3-3-3-3-3-3-3-3-3-|
--------------------------2-2-2-2-*||*-------------------------------|
-----------------------------------||---5----------------------------|


                                                                   
----------------------------------|-------------------------------|
----------------------------------|-------------------------------|
--3-3-3-3-3-3-3-3-3-3-3-3-3-3-3-3-|-------3-3-3-3-3-3-3-3-3-3-3-3-|
----------------------------------|-------------------------------|
----------------------------------|--5----------------------------|


                                   3x                       
-----------------------------------||---------------------||
----------------------------------*||---------------------||
--3-3-3-3-3-3-3-3-3-3-3-3-3-3-3-3--||---------------------||
----------------------------------*||--4--4---------------||
-----------------------------------||--------5------------||
Suggest correction
Creating personal tab
Creating personal tab
You can edit any tab online and save it as your Personal.

You can edit, replace or remove any tab part or add personal notes – all changes will be seen only by you.

Personal tabs can be accessed anytime from any device, even offline.
Learn more »
Give kudos to tab author, rate the tab!
1 2 3 4 5
comments
print report bad tab
guest
You may want to rate the tab now too:
select rating
Wanna post a correction for this tab? Suggest correction