Oops, an error
Loading. Please wait.

Lunatic Of Gods Creation Tab

version 1
version 1

Whole song

Interactive

22 views 1 this week
no commentswrite comment
1 2 3 4 5
3 more votes to show rating
add to favorites
launch autoscroll
font size
0
reset
how to read this tab
guitar tuner
Autoscroll
slow
fast
+/-
esc
set tempo
stop
Help us to improve Ultimate-Guitar.com Take our survey!
×
Author
Difficulty
Tuning
intermediate
C# G# E B F# C#
Decapitated - Lunatic of God's Creation
The Negation (2004)

[Main]
 
C#|-----------------|-----------------|-----------------|-----------------|
G#|-----------------|-----------------|-----------------|-----------------|
E |-----------------|-----------------|-----------------|-----------------|
B |-------------2-1-|-3-2---2-1-------|-------------2-1-|-3-2---2-1-------|
F#|-2-1---3-2-------|-----3-----3-2-1-|-2-1---3-2-------|-----3-----3-2-1-|
C#|-----2-----2-----|-----------------|-----2-----2-----|-----------------|
    . . . . . . . .   . . . . . . . .   . . . . . . . .   . . . . . . . .

[Break I]

C#|---------------------------------|-------------------------------|
G#|---------------------------------|-------------------------------|
E |---------------------------------|-------------------------------|
B |---------------------------------|-------------------------10----|
F#|---------------------------------|-------------------------8-----|
C#|-0-0-0-0-4-4-4-4-3-3-3-3-6-6-6-6-|-4-4-4-4-8-8-8-8-7-7-7-7-------|

[Verse]

C#|-------------------------------------------------|
G#|-------------------------------------------------|
E |-------------------------------------------------|
B |-------------------------------------------------|
F#|-------------------------------------------------|
C#|-0-0-0-0-4-4-4-4-3-3-3-3-3-3-3-3-6-6-6-6-4-4-3-3-|
    . . . . . . . . . . . . . . . . . . . . . . . .

[Break II]

C#|---------------------------------|---------------------------------|
G#|---------------------------------|---------------------------------|
E |---------------------------------|---------------------------------|
B |---------------------------------|---------------------------------|
F#|-----------------3-3-3-3-2-2-2-2-|---------------------------------|
C#|-0-0-0-0-1-1-1-1-----------------|-0-0-0-0-1-1-1-1-4-4-4-4-3-3-3-3-|

C#|---------------------------------|---------------------------------|
G#|---------------------------------|---------------------------------|
E |---------------------------------|---------------------------------|
B |---------------------------------|---------------------------------|
F#|---------------------------------|-----------------3-3-3-3-2-2-2-2-|
C#|-0-0-0-0-1-1-1-1-4-4-4-4-3-3-3-3-|-0-0-0-0-1-1-1-1-----------------|

[Chorus]

C#|-----------------|-----------------|-----------------|-----------------|
G#|-----------------|-----------------|-----------------|-----------------|
E |-----------------|-----------------|-----------------|-----------------|
B |-3-2---2-1-------|-----------------|-3-2---2-1-------|-----------------|
F#|-----3-----3-2-1-|-3-2---2-1-------|-----3-----3-2-1-|-3-2---2-1-------|
C#|-----------------|-----3-----3-2-1-|-----------------|-----3-----3-2-1-|
    . . . . . . . .   . . . . . . . .   . . . . . . . .   . . . . . . . . 

[End]

C#|--------------|
G#|--------------|
E |--------------|
B |-3-2---2-2----|
F#|-----3---2----|
C#|---------0----|
    . . . . 

Order:
Main x2
Break I x4
Verse x10
Break II x2
Chorus x4
Break I x6
Verse x10
Break II x2
Chorus x4
Replace last bar of last chorus with 'End'

************************************

.  Palm mute

************************************
Suggest correction
Give kudos to tab author, rate the tab!
1 2 3 4 5
comments
print report bad tab
guest
You may want to rate the tab now too:
select rating
Wanna post a correction for this tab? Suggest correction