Oops, an error
Loading. Please wait.

Eroplanong Papel tab

version 1
version 1

Whole song

1,612 views 174 this week
no commentswrite comment
1 2 3 4 5
x 3
add to favorites
×
Save as Personal and add changes to this tab that will be seen only by you. Learn more ›
×
You can save this tab as Personal to edit and correct it or add notes. All changes will be seen only by you. Learn more »
launch autoscroll
font size
0
reset
how to read this tab
guitar tuner
edit
Autoscroll
slow
fast
+/-
esc
set tempo
stop
December Avenue by Eroplanong Papel Tabs and Chords based from:
https://www.youtube.com/watch?v=vxj1SB3GZiI

Read legend before playing

[Intro]

Acoustic Guitar:

C CM7 Am7 AM9 

(After playing the pattern once)

Lead Guitar /w Delay: 

e|---------------------------------------------------------------------------|
B|------12-13-12--------------------12-13-12-------15--15--15----------------|
G|---12----------12-12-----------12----------12------------------------------|
D|---------------------14-{14}------------------14---14--14------------------|
A|---------------------------------------------------------------------------|
E|---------------------------------------------------------------------------|

e|---------------------15--15--15--15----------------------------------------|
B|------12-13-12----------------------17-17-15-15-13-13-12-12-8--------------|
G|---12----------12------14--14----------------------------------------------|
D|------------------14-------------------------------------------------------|
A|---------------------------------------------------------------------------|
E|---------------------------------------------------------------------------|

Add some more gain for this part

e|---------------------------------------------------------------------------|
B|---------------------------------------------------------------------------|
G|---------------------------------------------------------------------------|
D|-------------------------------------------16-17-------------17b19b17~-----|
A|-/14-15-14-------/14-15-14-------/14-15-14---------/14-15-14---------------|
E|-----------15~-------------15~---------------------------------------------|


[Verse 1]

Sandali wag kang mapupuno ng paghihirap

Dadarating din ang pag-asa mong pinapangarap

Di ba sapat na ika'y mayrong pag-ibig?

Na sa puso mong hindi maipapalit?

Ika'y ngumiti

Lead Guitar w/ Delay:

Ihip ng hangin sa kamay mong malamig
e|---------------------------------------------------------------------------|
B|------12-13-12--------------------12-13-12-------15--15--15----------------|
G|---12----------12-12-----------12----------12------------------------------|
D|---------------------14-{14}------------------14---14--14------------------|
A|---------------------------------------------------------------------------|
E|---------------------------------------------------------------------------|
Daing na tinig sa aking pandinig
e|---------------------15--15--15--15----------------------------------------|
B|------12-13-12----------------------17-17-15-15-13-13-12-12-8--------------|
G|---12----------12------14--14----------------------------------------------|
D|------------------14-------------------------------------------------------|
A|---------------------------------------------------------------------------|
E|---------------------------------------------------------------------------|

Liliparin ang isipan mo't damdamin
e|--------------7--------7--------8-8-7-7------------------------------------|
B|---------8------8--------8--------------8-8--------------------------------|
G|----9-------------9--------9-----------------------------------------------|
D|-10---10---10-------10-------10--------------------------------------------|
A|---------------------------------------------------------------------------|
E|---------------------------------------------------------------------------|
Makarating pa kaya sa kaniyang piling
e|---------------------------------------------------------------------------|
B|------12-13-12--------------------12-13-12-------15--15--15----------------|
G|---12----------12-12-----------12----------12------------------------------|
D|---------------------14-{14}------------------14---14--14------------------|
A|---------------------------------------------------------------------------|
E|---------------------------------------------------------------------------|
Ika'y pumikit
e|---------------------------------------------------------------------------|
B|---------10--------9-9-----------------------------------------------------|
G|------10---------9---------------------------------------------------------|
D|---10----------9-----------------------------------------------------------|
A|-8-----------7-------------------------------------------------------------|
E|---------------------------------------------------------------------------|

[Chorus]

Kung pana
      langin            ko'y            di            marinig
e|-----------------------------------------------------------------------------------|
B|-----------------------------------------------------------------------------------|
G|-/12-12-12-12-9-9-9-9-7-7-7-7-5-5-5-5-5-5-/12-12-12-12-9-9-9-9-7-7-7-7-5-5-5-5-5-5-|
D|-----------------------------------------------------------------------------------|
A|-----------------------------------------------------------------------------------|
E|-----------------------------------------------------------------------------------|

      Abutin            man            ng            bawat            sandali
e|-----------------------------------------------------------------------------------|
B|-----------------------------------------------------------------------------------|
G|-/12-12-12-12-9-9-9-9-7-7-7-7-5-5-5-5-5-5-/12-12-12-12-9-9-9-9-7-7-7-7-5-5-5-5-5-5-|
D|-----------------------------------------------------------------------------------|
A|-----------------------------------------------------------------------------------|
E|-----------------------------------------------------------------------------------|

Kailangan kong isigaw, ako'y iyong iyo
e|---------------------------------------------------------------------------|
B|---------------------------------------------------------------------------|
G|-/9-9-9-9-9-9-9-9-9-9-9-9p10s7-7-7-7-7-7-7-7-7-7-7-7-7-7s5-5-5-5-----------|
D|---------------------------------------------------------------------------|
A|---------------------------------------------------------------------------|
E|---------------------------------------------------------------------------|

Ang dalangin ng puso'y ikaw
e|---------------------------------------------------------------------------|
B|---------------------------------------------------------------------------|
G|-7-7-7-7-7-7-7-7-7-7-7-7s9-9-9-9-9-9-9-9-9---------------------------------|
D|---------------------------------------------------------------------------|
A|---------------------------------------------------------------------------|
E|---------------------------------------------------------------------------|


[Verse 2]

Lead Guitar w/ Delay:

Sandali wag mong pigilan ang iyong pagluha
e|---------------------------------------------------------------------------|
B|------12-13-12--------------------12-13-12-------15--15--15----------------|
G|---12----------12-12-----------12----------12------------------------------|
D|---------------------14-{14}------------------14---14--14------------------|
A|---------------------------------------------------------------------------|
E|---------------------------------------------------------------------------|
Damdamin mo'y aahon sa tumigil na tadhana
e|---------------------15--15--15--15----------------------------------------|
B|------12-13-12----------------------17-17-15-15-13-13-12-12-8--------------|
G|---12----------12------14--14----------------------------------------------|
D|------------------14-------------------------------------------------------|
A|---------------------------------------------------------------------------|
E|---------------------------------------------------------------------------|

Aabutan ng 'yong palad ang hangarin 
e|--------------7--------7--------8-8-7-7------------------------------------|
B|---------8------8--------8--------------8-8--------------------------------|
G|----9-------------9--------9-----------------------------------------------|
D|-10---10---10-------10-------10--------------------------------------------|
A|---------------------------------------------------------------------------|
E|---------------------------------------------------------------------------|
Makarating pa kaya sa kaniyang piling
e|---------------------------------------------------------------------------|
B|------12-13-12--------------------12-13-12-------15--15--15----------------|
G|---12----------12-12-----------12----------12------------------------------|
D|---------------------14-{14}------------------14---14--14------------------|
A|---------------------------------------------------------------------------|
E|---------------------------------------------------------------------------|
Ika'y pumikit
e|---------------------------------------------------------------------------|
B|---------10--------9-9-----------------------------------------------------|
G|------10---------9---------------------------------------------------------|
D|---10----------9-----------------------------------------------------------|
A|-8-----------7-------------------------------------------------------------|
E|---------------------------------------------------------------------------|

[Chorus]

Kung pana
      langin            ko'y            di            marinig
e|-----------------------------------------------------------------------------------|
B|-----------------------------------------------------------------------------------|
G|-/12-12-12-12-9-9-9-9-7-7-7-7-5-5-5-5-5-5-/12-12-12-12-9-9-9-9-7-7-7-7-5-5-5-5-5-5-|
D|-----------------------------------------------------------------------------------|
A|-----------------------------------------------------------------------------------|
E|-----------------------------------------------------------------------------------|

      Abutin            man            ng            bawat            sandali
e|-----------------------------------------------------------------------------------|
B|-----------------------------------------------------------------------------------|
G|-/12-12-12-12-9-9-9-9-7-7-7-7-5-5-5-5-5-5-/12-12-12-12-9-9-9-9-7-7-7-7-5-5-5-5-5-5-|
D|-----------------------------------------------------------------------------------|
A|-----------------------------------------------------------------------------------|
E|-----------------------------------------------------------------------------------|

Kailangan kong isigaw, ako'y iyong iyo
e|---------------------------------------------------------------------------|
B|---------------------------------------------------------------------------|
G|-/9-9-9-9-9-9-9-9-9-9-9-9p10s7-7-7-7-7-7-7-7-7-7-7-7-7-7s5-5-5-5-5---------|
D|---------------------------------------------------------------------------|
A|---------------------------------------------------------------------------|
E|---------------------------------------------------------------------------|

Ang dalangin ng puso'y ikaw
e|---------------------------------------------------------------------------|
B|---------------------------------------------------------------------------|
G|-7-7-7-7-7-7-7-7-7-7-7-7s9-9-9-9-9-9-9-9-9---------------------------------|
D|---------------------------------------------------------------------------|
A|---------------------------------------------------------------------------|
E|---------------------------------------------------------------------------|

[Solo]


e|---------------------------------------------------------------------------|
B|---------------------------------------------------------------------------|
G|-s17-16--------s17-16---------------------s17-16---------------------------|
D|--------17-17~--------17-17~----14b15b14---------17-17~--14b15b14-14b15b14-|
A|---------------------------------------------------------------------------|
E|---------------------------------------------------------------------------|

e|---------------------------------------------------------------------------|
B|---------------------------------------------------------------------------|
G|--------------s17-16----------s17-16-16~~~s17--s17-16-17~------------------|
D|-12s14s17s9----------17-17~------------------------------------------------|
A|---------------------------------------------------------------------------|
E|---------------------------------------------------------------------------|

e|---------------------------------------------------------------------------|
B|---------------------------------------------------------------------------|
G|---------------------------------------------------------------------------|
D|-----10p12-12-12---12-12-12s14-14-14---------------------------------------|
A|-X-X-----------------------------------------------------------------------|
E|-X-X-----------------------------------------------------------------------|

[Breakdown]

At kung sa bawat higpit Ng aking pag daramdam

PM 
e|-1--1--1--1--1--1--1--1---0--0--0--0--0--0--0--0---------------------------|
B|-1--1--1--1--1--1--1--1---3--3--3--3--3--3--3--3---------------------------|
G|-2--2--2--2--2--2--2--2---0--0--0--0--0--0--0--0---------------------------|
D|-3--3--3--3--3--3--3--3---0--0--0--0--0--0--0--0---------------------------|
A|-3--3--3--3--3--3--3--3---2--2--2--2--2--2--2--2---------------------------|
E|-1--1--1--1--1--1--1--1---3--3--3--3--3--3--3--3---------------------------|
                  
Ay  hindi  ka  malapitan
e|-x-x-x-x--0--x-x-x-x--2--x-x-x-x--0----------------------------------------|
B|-x-x-x-x--1--x-x-x-x--4--x-x-x-x--0----------------------------------------|
G|-x-x-x-x--0--x-x-x-x--4--x-x-x-x--0----------------------------------------|
D|-x-x-x-x--2--x-x-x-x--4--x-x-x-x--2----------------------------------------|
A|-x-x-x-x--3--x-x-x-x--2--x-x-x-x--0----------------------------------------|
E|-x-x-x-x--0--x-x-x-x--2--x-x-x-x--0----------------------------------------|
Nakikiusap      nalang      aaaaang
e|----1-1-1-1-1-1-1-1-1----0-0-0-0-0~----------------------------------------|
B|----1-1-1-1-1-1-1-1-1----0-0-0-0-0~----------------------------------------|
G|----2-2-2-2-2-2-2-2-2----1-1-1-1-1~----------------------------------------|
D|----3-3-3-3-3-3-3-3-3----2-2-2-2-2~----------------------------------------|
A|----3-3-3-3-3-3-3-3-3----2-2-2-2-2~----------------------------------------|
E|----1-1-1-1-1-1-1-1-1------------------------------------------------------|

[Acoustic Guitar Interlude]

Kung panalangin ko'y di marinig

Abutin man ng bawat sandali

Kailangan kong isigaw

Ako'y iyong iyo

Ang dalangin ng puso'y ikaw

[Outro]

e|---------------------------------------------------------------------------|
B|---------------------------------------------------------------------------|
G|---------------------------------------------------------------------------|
D|---------------------------------------------------------------------------|
A|-s15-14--------s15-14-----------s15-14-------------------------------------|
E|--------15-15---------15-15-12---------15-15-12-12-12-12-12-15-15-15-------|

e|---------------------------------------------------------------------------|
B|---------------------------------------------------------------------------|
G|---------------------------------------------------------------------------|
D|---------------------------------------------------------------------------|
A|-12-12-12-14-14-14-15-15-15-s15-14-15~--s15-14-----s15-14-15-15-15-15-15-15|
E|-----------------------------------------------15--------------------------|

e|---------------------------------------------------------------------------|
B|---------------------------------------------------------------------------|
G|---------------------------------------------------------------------------|
D|---------------------------------------------------(let ring)--------------|
A|-15-15-15-15-15-15-s-17-17-17-17-17-17-17-17-s-19~-------------------------|
E|---------------------------------------------------------------------------|

 
*Notes with the symbol {} may be repeated multiple times to achieve the same effect
in the video 

************************************

| b   Bend
| ~   Vibrato
| /   Slide up
| p   Pull-off
| PM  Palm mute
| x   Dead note
 

************************************

            
            
Suggest correction
Creating personal tab
Creating personal tab
You can edit any tab online and save it as your Personal.

You can edit, replace or remove any tab part or add personal notes – all changes will be seen only by you.

Personal tabs can be accessed anytime from any device, even offline.
Learn more »
Give kudos to tab author, rate the tab!
1 2 3 4 5
comments
print report bad tab
guest
You may want to rate the tab now too:
select rating
Wanna post a correction for this tab? Suggest correction