Oops, an error
Loading. Please wait.

Fallin tab

version 1
version 1

Whole song

1,762 views 18 this week
1 commentread comment
1 2 3 4 5
2 more votes to show rating
add to favorites
×
Save as Personal and add changes to this tab that will be seen only by you. Learn more ›
×
You can save this tab as Personal to edit and correct it or add notes. All changes will be seen only by you. Learn more »
launch autoscroll
font size
0
reset
how to read this tab
guitar tuner
edit
Autoscroll
slow
fast
+/-
esc
set tempo
stop
Author
Difficulty
FALLIN'
December Avenue
Tabbed by Jan Christian Blaise Cruz

Tabs for Fallin', the lead single for December Avenue's upcoming full
length independent album. I tried my best to tab out the timing between
the two guitars. I think these are at least 95% correct. Leave comments
and be sure to upvote if you liked it. Enjoy!

TUNING: Guitar 1 (Distorted): eBGDAE
        Guitar 2 (Clean): eBGDAE

CHORDS USED:
       C#m   D     F#m   E
e|-----0-----0-----0-----0-----|
B|-----0-----0-----0-----0-----|
G|-----6-----7-----2-----1-----|
D|-----6-----7-----4-----2-----|
A|-----4-----5-----4-----2-----|
E|-----0-----0-----0-----0-----|

INTRO:
Guitar 1 (Distorted):
e|-------------------------------------------------------------------------------|
B|-------------------------------------------------------------------------------|
G|--2/9-9~----------------------------------14/9-9~------------------------------|
D|--x-x-x-----------------------------------x--x-x-------------------------------|
A|--4/7-7~----------------------------------12/7-7~------------------------------|
E|-------------------------------------------------------------------------------|

Guitar 2 (Clean):
e|-------------0-------0----------5-------4------------0-------0-------5------4--|
B|-------------------------------------------------------------------------------|
G|-----------6-------7----------2-------2------------6-------7-------2------2----|
D|---------6-------7----------4-------2------------6-------7-------2-------2-----|
A|-------4-------5----------4-------1------------4-------5-------4-------1-------|
E|-------------------------------------------------------------------------------|

Guitar 1 (Distorted):
e|---------------------------------------|
B|---------------------------------------|
G|--13-13-13/7-7/9-9--/13-13-13/7-7/9-9--|
D|--x--x--x--x-x-x-x---x--x--x--x-x-x-x--|
A|--11-11-11/5-5/7-7--/11-11-11/5-5/7-7--|
E|---------------------------------------|

Guitar 2 (Clean):
C#m - D  F#m - E (x2)

VERSE:
Guitar 2 (Clean):
e|--------0-------0-------5-------4--|
B|-----------------------------------|
G|------6-------7-------2-------2----|
D|----6-------7-------4-------2------| (x6)
A|--4-------5-------4-------1--------|
E|-----------------------------------|

Guitar 1 (Distorted): 
e|-------|-------|------|-----------------------------|
B|----5--|----5--|----5-|-----------------------------|
G|--4----|--4----|--4---|--999-----999-----999/11-----|
D|-------|-------|------|------6-7-----6-7--------9v--|
A|-------|-------|------|-----------------------------|
E|-------|-------|------|-----------------------------|
*Play these four fills on the 3rd, 4th, 5th, and 6th times guitar 2 plays his part.

PRECHORUS:
Guitar 1 (Distorted):
e|----------------|----------------|-------------------|-----------------|
B|----------------|----------------|-------------------|-----------------|
G|----------------|----------------|-------------------|-------9/11---9--|
D|--6--7----------|--6--7----------|--6--7-------------|------------9----|
A|--4--5--1--4-5--|--4--5--1--4-5--|--4--5--7-9--------|-----------------|
E|--------0--2-3--|--------0--2-3--|-------------7-9~--|-----------------|
*Guitar 1 is faint here. Listen carefully for the timing.

Guitar 2 (Clean):
C#m - F#m (x4)

CHORUS:
Guitar 1 (Distorted):
e|---------------------|
B|---------------------|
G|----9----9----9---9--| 
D|--7---66---7----6----| (x8)
A|---------------------|
E|---------------------|
*Do little variations if you want to add variance.

Guitar 2 (Clean):
C#m - D  F#m - E (x4)
*Listen to the song for the strumming pattern. Here is how I do it:

    C#m         D      F#m         E
e|--0--0--0-0-0-0-0-0--0--0--0-0-0-0-0-0--|
B|--0--0--0-0-0-0-0-0--0--0--0-0-0-0-0-0--|
G|--6--6--6-6-6/7-7-7--2--2--2-2-2/1-1-1--|
D|--6--6--6-6-6/7-7-7--4--4--4-4-4/2-2-2--|
A|--4--4--4-4-4/5-5-5--4--4--4-4-4/2-2-2--|
E|----------------------------------------|

PREVERSE:
Guitar 1 (Distorted):
e|--------------------------|
B|--------------------------|
G|--9/2-2-------------------|
D|--x/x-x-------------------|
A|--7/0-0-------------------|
E|--------------------------|

Guitar 2 (Clean):
e|---------------5-------4--|
B|--------------------------|
G|-------------2-------1----|
D|-----------4-------2------|
A|---------4-------2--------|
E|--------------------------|

VERSE 2:
Guitar 2 (Clean):
e|--------0-------0-------5-------4--|
B|-----------------------------------|
G|------6-------7-------2-------2----|
D|----6-------7-------4-------2------| (x4)
A|--4-------5-------4-------1--------|
E|-----------------------------------|
*Note that guitar 1 does not play here.

PRECHORUS:
Guitar 1 (Distorted):
e|----------------|----------------|----------------|-----------------|
B|----------------|----------------|----------------|-----------------|
G|----------------|----------------|----------------|-------9/11---9--|
D|--6--7----------|--6--7----------|--6--7----------|------------9----|
A|--4--5--1--4-5--|--4--5--1--4-5--|--4--5--1--4-5--|-----------------|
E|--------0--2-3--|--------0--2-3--|--------0--2-3--|-----------------|

Guitar 2 (Clean):
C#m - F#m (x4)

CHORUS:
Guitar 1 (Distorted):
e|---------------------|
B|---------------------|
G|----9----9----9---9--| 
D|--7---66---7----6----| (x8)
A|---------------------|
E|---------------------|

Guitar 2 (Clean):
C#m - D  F#m - E (x4)

BRIDGE/BREAKDOWN:
Guitar 1 (Distorted):
e|-----------------|
B|-----------------|
G|-----------9-----|
D|--6-2---------7--| (x6)
A|--4-0------------|
E|-----------------|

Guitar 2 (Clean):
C#m - D  F#m - E (x6)

KEYBOARD SOLO:
Guitar 1 (Distorted):
e|---------------------|
B|---------------------|
G|----9----9----9---9--| 
D|--7---66---7----6----| (x4)
A|---------------------|
E|---------------------|
*Again, do little variations if you want to add variance.

Guitar 2 (Clean):
C#m - D  F#m - E (x2)

LAST CHORUS:
Guitar 1 (Distorted):
e|---------------------|
B|---------------------|
G|----9----9----9---9--| 
D|--7---66---7----6----| (x12)
A|---------------------|
E|---------------------|

Guitar 2 (Clean):
C#m - D  F#m - E (x6)

OUTRO:
Guitar 2 (Clean):
e|--------0-------0----------5-------4------------0-------0-------5------4--|
B|--------------------------------------------------------------------------|
G|------6-------7----------2-------2------------6-------7-------2------2----|
D|----6-------7----------4-------2------------6-------7-------2-------2-----|
A|--4-------5----------4-------1------------4-------5-------4-------1-------|
E|--------------------------------------------------------------------------|

            
            
Suggest correction
Creating personal tab
Creating personal tab
You can edit any tab online and save it as your Personal.

You can edit, replace or remove any tab part or add personal notes – all changes will be seen only by you.

Personal tabs can be accessed anytime from any device, even offline.
Learn more »
Give kudos to tab author, rate the tab!
1 2 3 4 5
comments
print report bad tab
1 comment total.
0 reply
geneva0309 10 Jan 01, 2016 06:06 AM, edited on January 3 2016, 08:58 am

Thank you sa tab na ito! Favorite ko panaman tong Fallin <3

guest
You may want to rate the tab now too:
select rating
Wanna post a correction for this tab? Suggest correction