Oops, an error
Loading. Please wait.

Sleep Tonight Tab

21,260 views 108 this week
10 commentsread comments
1 2 3 4 5
excellent!
x 6
add to favorites
launch autoscroll
font size
0
reset
how to read this tab
guitar tuner
Autoscroll
slow
fast
+/-
esc
set tempo
stop
Help us to improve Ultimate-Guitar.com Take our survey!
×
Author
Difficulty
intermediate
[Intro]
D/F#-G-Bm-A

 Clean
e|---------------17--------------------|--------------17-------------------|
B|------14h15p14---15-14-15p14---------|-----14h15p14----15-14-15p14--17---|
G|---14-------------------------16--14-|--14-------------------------------|2X
D|-------------------------------------|-----------------------------------|
A|-------------------------------------|-----------------------------------|
E|-------------------------------------|-----------------------------------|

[Pre-Solo]
D/F#-G-Bm-A (2x)

 Clean                                 *                  *Distort
e|-14-14-14-14-----------------------------------------|   -------|*Will be
B|--------------17-17-17-17-15-15-15-15-14-14-14-14----|   -------| played
G|---14-14-14-14--14-14-14-14-14-14-14-14-14-14-14-14--|2X ---/11-| on last
D|-----------------------------------------------------|   -------| bar along
A|-----------------------------------------------------|   ---/9--| w/ A chord
E|-----------------------------------------------------|   -------|

[Solo]
e|------------------------------------------------------------------------|
B|--12---10---------------------------------------------------------------|
G|--12---11---11----11^-9-------------------------------------------------|
D|-----------------------------12-11---11----77-7-7---9s11s9--7-7-7-------|
A|-----------------------------------------9------------------------------|
E|------------------------------------------------------------------------|

e|------------------------------------------------------------------------|
B|--10-10-10--------------------------------------------------------------|
G|-------------9-9-9--11-11-11--7-7---------------------------------------|
D|------------------------------------6h7-6h7-6h7-6h7-6h7s9---------------|
A|------------------------------------------------------------------------|
E|------------------------------------------------------------------------|

e|----------------------10-9--------------14------12---12h14--9h10--------|
B|--10-10--7777---10-12---------------------------------------------------|
G|--11-11--7777---------------11-11----11-----11--------------------------|
D|------------------------------------------------------------------------|
A|------------------------------------------------------------------------|
E|------------------------------------------------------------------------|

e|-------------------10-9-------------------------------------------------|
B|--10-7-777---10-12----------------10-101010---10------------------------|
G|--11-7-777---------------11-11----11-111111---11------------------------|
D|------------------------------------------------------------------------|
A|------------------------------------------------------------------------|
E|------------------------------------------------------------------------|

[Verse]
D/F#-G-Bm-A

[Pre-Chorus]
D/F#-G-Bm-A(2x)
D/F#-G-Gm

[Chorus]
D-G-Bm-A

Adlib: 
D/F#-G-Bm-A
 
************************************

| h  Hammer-on
| p  Pull-off
| /  Slide up
| s  Slide

************************************
Suggest correction
comments
print report bad tab
10 comments total. Showing first comments.
0 reply
dreipalomo 142 wrote on January 29 2013, 09:12 am

Please rate. =((

-1 reply
kiahmartinez 10 wrote on February 10 2013, 06:13 am

Super thank you!! :)

0 reply
dreipalomo 142 wrote on February 16 2013, 04:28 am

No problem, kiahmartinez. I'll do the solo next time. =D

guest
You may want to rate the tab now too:
select rating
Please do not post tabs as comments. Select "correction" instead!