Oops, an error
Loading. Please wait.

Drifter Chords

version 3
version 3

Whole song

12,787 views 16 this week
3 commentsread comments
1 2 3 4 5
excellent!
x 7
add to favorites
launch autoscroll
font size
0
reset
transpose
0
reset
display chords
guitar tuner
Tab Pro tools
  • play this tab
  • loop segment
  • change instrument
  • show fretboard
  • metronome
×
Best way to learn
"Drifter"
Autoscroll
slow
fast
+/-
esc
set tempo
stop
Contributor
Capo
4th fret
                             DRIFTER
                          (DecembeRadio)


(In the intro between the Am and The C there is some picking,
I couldnt figure out every single note that he was playing 
but I thought this would get you started anyway.)

CAPO 4th fret

Intro:

/ = slide down
\ = slide up
   D             Am       C
e--2/4-2---------0--------0---|
B--3/5-3-0/0\0-0-1--------1---|
G--2/4-2-2/4\2-0-2--------0---|
D----------------2--------2---|
A----------------0--------3---|
E-----------------------------|


Verse1:
G         Am                     C                        F
I used to have a home, a place I started from, a place to call my own
    G                                  Am
The bright lights and late nights, the devil took me out on a midnight ride
C                               G
Left me out in the desert on my own


Pre-Chorus:
    Am         D               Am                      D
And now I feel alone, I need a hand to help me find my way back home


Chorus:
      G
I'm a drifter out on a dead-end road
Am
Trying to find my way back home
   C                 G           F
To get to you, oh to get to you
     G
Lord I've gone for far too long
Am
Headed to places I don't belong
    C                            G
And I've got to get back home to you


Verse2:
G                 Am                           C
Sometimes I think about the past the road that I was on
              G            F
the road that led me home
     G                   Am
I'll walk on another day I may wonder, but I'll never stray
C                                  G
I found out the hard way sin don't pay   (Pre-Chorus)
                                           (Chorus)

Bridge:
Em            D                 C       G
   And when I feel the night is closing in
Em           D                 C    G D
   And I can barely breath the air
Em        D                  C       G
   I just remember that I've got a friend
    Am                   C           D
Who really cares, oh who really cares     (Chorus2x)


Outro:

Oh take me home (just keep playing the chorus during the lead break)


Lead break:

B = bend
~ = vibrato/shake

e------------------------------------|
B-12~12~12~12~14b--12~12~12~12~14b---|
G------------------------------------|
D------------------------------------|
A------------------------------------|
E------------------------------------|

Just add lib after that.

(The solo tab is as if you dont have a Capo on)

                  
comments
print report bad tab
3 comments total.
0 reply
addicted2gtrs wrote on March 14 2008, 02:21 pm

In the end lead I messed up.

This is the mess up...

e-12~12~12~12~14b--12~12~12~14b-12~~~--|
B--------------------------------------|
G--------------------------------------|
D--------------------------------------|
A--------------------------------------|
E--------------------------------------|

This is the correction... (Its related to capo)

e-------------------------------------|
B-8~8~8~8~10b--8~8~8~10b-8~~~---------|
G-------------------------------------|
D-------------------------------------|
A-------------------------------------|
E-------------------------------------|

lol, Sorry about that I guess I had a brain fart. I dont know what I was thinking that was WAY off I should have caught that, I even checked it several times and still missed that. It was late and I was doing it too fast. Sorry about that again.

0 reply
addicted2gtrs wrote on August 31 2009, 09:53 am

ive fixed it now, ignore my above comment.

0 reply
jstoeffler wrote on August 3 2010, 05:53 pm

I figured out the intro...


e-5-7--5---------------------------|
B-5/7--5--0/0\0-0------------------|
G-0/0--0--2/4\2-0------------------|
D----------------------------------|
A----------------------------------|
E----------------------------------|


God Bless!

I want to post or [tab]
guest
You may want to rate the tab now too:
select rating
Please do not post tabs as comments. Select "correction" instead!