Oops, an error
Loading. Please wait.

Contessa Bass Tab

450 views 1 this week
no commentswrite comment
1 2 3 4 5
please rate
add to favorites
launch autoscroll
font size
0
reset
guitar tuner
Autoscroll
slow
fast
+/-
esc
set tempo
stop
Help us to improve Ultimate-Guitar.com Take our survey!
×
Difficulty
novice
Decibel - Contessa
tabbed by Il poro Savo

This is my first tab gentleman, sorry if it isn't 100% correct, but it sounds
good to me....



"Vuoi che io rimanga nel tuo letto per poi sbattermi su e giù...

Verse 

G|7-------5-------|3-------2-------|x3
D|----7-------3---|----3-------2---|
A|----------------|----------------|
E|----------------|----------------| 
  1 & 2 & 3 & 4 &  1 & 2 & 3 & 4 &



pre-Chorus
G|----------------|----------------|x4
D|----------------|------------7---|
A|5-------3-------|----------------|
E|----------------|5-5-5-5-5-------|
  1 & 2 & 3 & 4 &  1 & 2 & 3 & 4 &


Solo
G|----------------|x3 
D|----------------|
A|5-----5---------|
E|--------5-------|
  1 & 2 & 3 & 4 &

G|----------------|
D|----------------|
A|5-----5---------|
E|--------5-2-5-2-|
  1 & 2 & 3 & 4 &

G|----------------|----------------|----------------|----------------|
D|----------------|----------------|----------------|----------------|
A|3-----3---------|3-----3---------|3-----3---------|----------------|
E|--------2-------|--------2-5-2-5-|--------2-------|2-2-2-2-2-------|
  1 & 2 & 3 & 4 &  1 & 2 & 3 & 4 &  1 & 2 & 3 & 4 &  1 & 2 & 3 & 4 &


Chorus

G|----------------|----------------|----------------|
D|--------8---7---|--------8---7---|----------------|
A|5---8---------8-|5---8---------8-|5---------------|
E|----------------|----------------|----------------|
  1 & 2 & 3 & 4 &  1 & 2 & 3 & 4 &  1 & 2 & 3 & 4 &  


Verse


Pre-chorus


Solo


Pre-chorus


Ending

G|------------------------|------------------------|-----------------------|
D|------------5-----------|------------5-----------|-----------------------|
A|5-----------------3-0-3-|5-----------------3-0-3-|5----------------------|
E|------6-----------------|------6-----------------|-----------------------|
  1 + + 2 + + 3 + + 4 + +  1 + + 2 + + 3 + + 4 + +  1 + + 2 + + 3 + + 4 + +
Suggest correction
Give kudos to tab author, rate the tab!
1 2 3 4 5
comments
print report bad tab
guest
You may want to rate the tab now too:
select rating
Wanna post a correction for this tab? Suggest correction