Oops, an error
Loading. Please wait.

Bethlehem bass

97 views 24 this week
no commentswrite comment
1 2 3 4 5
3 more votes to show rating
add to favorites
×
Save as Personal and add changes to this tab that will be seen only by you. Learn more ›
×
You can save this tab as Personal to edit and correct it or add notes. All changes will be seen only by you. Learn more »
launch autoscroll
font size
0
reset
guitar tuner
edit
Autoscroll
slow
fast
+/-
esc
set tempo
stop
About this tab version
Bass Tab to Bethlehem by Declan McKenna. There are some small variations around the chorus which are best played and felt than to be tabbed. Separated by timestamp codes to the album version of the song. Was this info helpful? Yes No
Declan McKenna - Bethlehem (What Do You Think About The Car?)

128 B.P.M

[Verse]
"So, you've left it all behind you..." (0:06)
G|--------------------|--------------------|--------------------|---------------|
D|--------------------|--------------------|--------------------|---------------|
A|--------------------|--------------------|--------------------|---------------|
E|--------------------|--------------------|--------------------|---------------|

G|--------------------|--------------------|--------------------|---------------|
D|--------------------|--------------------|--------------------|---------------|
A|--------------------|--------------------|--------------------|---------------|
E|--------------------|--------------------|--------0-----------|---------------|

"Though, so many do confide..." (0:21)
G|--------------------|--------------------|--------------------|---------------|
D|--------------------|--------------------|--------------------|---------------|
A|--------------------|--------------------|--------------------|---------------|
E|--------------------|--------------------|--------------------|---------------|

G|--------------------|--------------------|--------------------|---------------|
D|--------------------|--------------------|--------------------|---------------|
A|--------------------|--------------------|--------------------|---------------|
E|--------------------|--------------------|--------0-----------|---------------|

"But you sin as you wish..." (0:36)
G|--------------------|--------------------|--------------------|---------------|
D|--------------------|--------------------|--------------------|---------------|
A|--------------------|--------------------|--------------------|---------------|
E|7----------5------/-|9----------7--------|5-------------------|5h7------------|

"Because Im in Bethlehem..." (0:42)
G|--------------------|--------------------|--------------------|---------------|
D|--------------------|--------------------|--------------------|---------------|
A|--------------------|--------------------|--------------------|---------------|
E|0---------09------/-|7----/---5----------|0---------09------/-|7----/---5-----|

G|--------------------|--------------------|
D|--------------------|--------------------|
A|--------------------|--------------------|
E|0---------09------/-|7----/---5---------5|

"I can do as I want..." (0:56)
G|--------------------|--------------------|--------------------|---------------|
D|--------------------|--------------------|--------------------|---------------|
A|--------------------|--------------------|--------------------|---------------|
E|7----------5--------|4----------2--------|0-------------------|---------------|

[Guitar Solo] (1:02)
G|--------------------|--------------------|--------------------|---------------|
D|--------------------|--------------------|--------------------|---------------|
A|--------------------|4---------44-------4|--------------------|---------------|
E|0--------000-------0|--------------------|7--------777------7/|5-------55---/-|

G|--------------------|--------------------|--------------------|---------------|
D|--------------------|--------------------|--------------------|---------------|
A|--------------------|4---------44-------4|--------------------|---------------|
E|0--------000-------0|--------------------|7--------777------7/|5-------55-----|

G|--------------------|--------------------|
D|--------------------|--------------------|
A|--------------------|--------------------|
E|5h7-----------------|--------------------|

"Codes, you follow codes..." (1:21)
G|--------------------|--------------------|--------------------|---------------|
D|--------------------|--------------------|--------------------|---------------|
A|2---------22--------|222-------222------2|00--------000------0|---------------|
E|--------------------|--------------------|--------------------|00------000---0|

G|--------------------|--------------------|--------------------|---------------|
D|--------------------|--------------------|--------------------|---------------|
A|4---------422------2|00--------0---------|--------------------|---------------|
E|--------------------|-----------22------2|0-------------------|00-------------|

"Hope, I hope and pray..." (1:36)
G|--------------------|--------------------|--------------------|---------------|
D|--------------------|--------------------|--------------------|---------------|
A|2---------22--------|222-------222------2|00--------000------0|---------------|
E|--------------------|--------------------|--------------------|00------000---0|

G|--------------------|--------------------|--------------------|---------------|
D|--------------------|--------------------|--------------------|---------------|
A|4---------422------2|00--------0---------|--------------------|---------------|
E|--------------------|-----------22------2|0-------------------|00-------------|

"But you sin as you wish..." (1:51)
G|--------------------|--------------------|--------------------|---------------|
D|--------------------|--------------------|--------------------|---------------|
A|--------------------|--------------------|--------------------|---------------|
E|7---------75------5/|9---------97-------7|5----------55-------|5h7------------|

"Because I'm in Bethlehem..." (1:58)
G|--------------------|--------------------|--------------------|---------------|
D|--------------------|--------------------|--------------------|---------------|
A|-----------4-------4|--------------------|-----------4-------4|---------------|
E|0---------0---------|7---------75-------5|0---------0---------|77----/----5---|

G|--------------------|--------------------|--------------------|---------------|
D|--------------------|--------------------|--------------------|---------------|
A|-----------4-------4|--------------------|--------------------|---------------|
E|0---------0---------|7---------75-------5|7---------75-------5|4--------42---2|

                      [Guitar Solo] (2:18)
G|--------------------|--------------------|--------------------|---------------|
D|--------------------|--------------------|--------------------|---------------|
A|--------------------|--------------------|4---------44---/---7|---------------|
E|0-------------------|0--------000-------0|--------------------|7-------777---7|

G|--------------------|--------------------|--------------------|---------------|
D|--------------------|--------------------|--------------------|---------------|
A|--------------------|--------------------|4---------44---/---7|---------------|
E|5---------55------/-|0--------000-------0|--------------------|7-------777---7|

                      "I'm in Bethlehem, I got a seat in Heaven..." (2:33)
G|--------------------|--------------------|--------------------|---------------|
D|--------------------|--------------------|--------------------|---------------|
A|--------------------|--------------------|4---------44---/---7|---------------|
E|5---------55------/-|0--------000-------0|--------------------|7-------777---7|

G|--------------------|--------------------|--------------------|---------------|
D|--------------------|--------------------|--------------------|---------------|
A|--------------------|--------------------|4---------44---/---7|---------------|
E|5---------55------/-|0--------000-------0|--------------------|7-------777---7|

G|--------------------|--------------------|--------------------|---------------|
D|--------------------|--------------------|--------------------|---------------|
A|--------------------|--------------------|4---------44---/---7|---------------|
E|5---------55------/-|0--------000-------0|--------------------|7-------777---7|

G|--------------------|--------------------|--------------------|---------------|
D|--------------------|--------------------|--------------------|---------------|
A|--------------------|--------------------|4---------44---/---7|---------------|
E|5---------55------/-|0--------000-------0|--------------------|7-------777---7|

                      [Outro] (3:03)
G|--------------------|--------------------|--------------------|---------------|
D|--------------------|--------------------|--------------------|---------------|
A|--------------------|--------------------|4-------------------|---------------|
E|5---------55------/-|0-------------------|--------------------|7--------------|

G|--------------------|--------------------|--------------------|---------------|
D|--------------------|--------------------|--------------------|---------------|
A|--------------------|--------------------|4-------------------|---------------|
E|5---------------/---|0-------------------|--------------------|7--------------|

G|--------------------|--------------------|--------------------|---------------|
D|--------------------|--------------------|--------------------|---------------|
A|--------------------|--------------------|4-------------------|---------------|
E|5---------------/---|0-------------------|--------------------|7--------------|

G|--------------------|--------------------|--------------------|---------------|
D|--------------------|--------------------|--------------------|---------------|
A|--------------------|--------------------|4-------------------|---------------|
E|5---------------/---|0-------------------|--------------------|7--------------|

G|--------------------|--------------------|
D|--------------------|--------------------|
A|--------------------|--------------------|
E|5---------------/---|0-------------------|



************************************

| h  Hammer-on
| /  Slide up

************************************

            
            
Suggest correction
Creating personal tab
Creating personal tab
You can edit any tab online and save it as your Personal.

You can edit, replace or remove any tab part or add personal notes – all changes will be seen only by you.

Personal tabs can be accessed anytime from any device, even offline.
Learn more »
Give kudos to tab author, rate the tab!
1 2 3 4 5
comments
print report bad tab
guest
You may want to rate the tab now too:
select rating
Wanna post a correction for this tab? Suggest correction