Oops, an error
Loading. Please wait.

Brazil Acoustic tab

version 1
version 1

Whole song

Interactive

3,013 views 150 this week
no commentswrite comment
1 2 3 4 5
x 4
add to favorites
×
Save as Personal and add changes to this tab that will be seen only by you. Learn more ›
×
You can save this tab as Personal to edit and correct it or add notes. All changes will be seen only by you. Learn more »
launch autoscroll
font size
0
reset
how to read this tab
guitar tuner
edit
Autoscroll
slow
fast
+/-
esc
set tempo
stop
This is from the acoustic video. https://www.youtube.com/watch?v=SLnA3YUWzhA
Please note that this isn't 100% accurate but this is the best i could do :)

    C#m                    B                      A                   E
e----9-----|          e----7-----|           e----5-----|         e----0-----|
B----9-----|          B----7-----|           B----5-----|         B----0-----|
G----9-----|          G----8-----|           G----6-----|         G----1-----|
D----11----|          D----9-----|           D----7-----|         D----2-----|
A----11----|          A----9-----|           A----7-----|         A----2-----|
E----9-----|          E----7-----|           E----5-----|         E----0-----|
  
[Intro]
e|-----------------------------------------|
B|----9-------9---------10-------9-----9---|
G|-9-----9-8-----8-------------------------|
D|------------------9/10----10-9----9------|
A|-----------------------------------------|
E|-----------------------------------------|

  I heard you sold the Amazon.....
e|-----------------------------------------|
B|----9-------9---------10-------9-----9---|
G|-9-----9-8-----8-------------------------|
D|------------------9/10----10-9----9------|
A|-----------------------------------------|
E|-----------------------------------------|

  I'm faithless now though we win every time and I don't know how.....
e|----0-------0-------0------0-------------|
B|-9-------9-------5------0----------------|
G|-9-----9-8-----8-5----5-1----1-----------|
D|-----------------------------------------|
A|-----------------------------------------|
E|-----------------------------------------|

C#m        B            A         E 
I heard he lives down a river somewhere, 
C#m    B          A       E
With 6 cars and a grizzly bear,
C#m      B         A        E
He's got eyes, but he can't see,
          C#m          B             A         E 
Well, he talks like an angel but he looks like me,  OH LORD!

What have I become?.....
e|----0-------0-------0------0-------------|
B|-9-------9-------5------0----------------|
G|-9-----9-8-----8-5----5-1----1-----------|
D|-----------------------------------------|
A|-----------------------------------------|
E|-----------------------------------------|

And it gets me down.....
e|-----------------------------------------|
B|----9-------9---------10-------9-----9---|
G|-9-----9-8-----8-------------------------|
D|------------------9/10----10-9----9------|
A|-----------------------------------------|
E|-----------------------------------------|

C#m        B            A         E 
I heard he lives down a river somewhere, 
C#m    B          A       E
With 6 cars and a grizzly bear,
C#m      B         A        E
He's got eyes, but he can't see,
          C#m          B             A         E 
Well, he talks like an angel but he looks like me (x2)

Now you basically play the chords from the Chorus but you play 
the first string of each chord (except E) first and then back to normal strumming
(idk how to explain it I'm sorry)

I wanna play the beautiful game while I'm in Brazil....
e|-----------------------------------------|
B|----9-------7-------5-------0---0--------|
G|----9-------8-------6-------1---1--------|
D|-----------------------------------------|
A|-----------------------------------------|
E|-9-----9-7-----7-5-----5-0----0----------|
(It's easier if you just hold the chords from the chorus)

I wanna play the beautiful game while I'm in Brazil....
e|-0-------0-------0-------0---------------|
B|-0-------0-------0-------0---------------|
G|-8-------6-------4-------1---------------|
D|-9-------7-------6-------2---------------|
A|-9-------7-------5-------2---------------|
E|-0-------0-------0-------0---------------|
(strumming pattern is like the chorus)
(you could also just play the normal chords)

C#m        B            A         E 
I heard he lives down a river somewhere, 
C#m    B          A       E
With 6 cars and a grizzly bear,
C#m      B         A        E
He's got eyes, but he can't see,
          C#m          B             A         E 
Well, he talks like an angel but he looks like me (x2)

(the last last like you play nothing)

e|----0-------0----------0--------------------------0---|
B|-9-------9-----------------------9----------9----9----|
G|-9-----9-8-----8--------------------8-----------8-----|
D|-----------------9/10----10---9----------9-----9------|
A|------------------------------------------------------|
E|------------------------------------------------------|



************************************

| /  Slide up
| A  
| B  
| D  
| E  
| G  
| e  

************************************

            
            
Suggest correction
Creating personal tab
Creating personal tab
You can edit any tab online and save it as your Personal.

You can edit, replace or remove any tab part or add personal notes – all changes will be seen only by you.

Personal tabs can be accessed anytime from any device, even offline.
Learn more »
comments
print report bad tab
guest
You may want to rate the tab now too:
select rating
Wanna post a correction for this tab? Suggest correction