Oops, an error
Loading. Please wait.

Howl tab

97 views 3 this week
no commentswrite comment
1 2 3 4 5
3 more votes to show rating
add to favorites
×
Save as Personal and add changes to this tab that will be seen only by you. Learn more ›
×
You can save this tab as Personal to edit and correct it or add notes. All changes will be seen only by you. Learn more »
launch autoscroll
font size
0
reset
how to read this tab
guitar tuner
edit
Autoscroll
slow
fast
+/-
esc
set tempo
stop
[Verse 1]
(no guitar in verse 1)

I don't like gettin' jealous that much
'Cause I know everybody cares, everybody cares
I don't care for attention that much
I just put my life over theirs, my life over theirs 

[Chorus]

   Howl...                                                                           Howl...
e|-12h14-12h14-12h14-12h14-12h14-12h14-14-12-9-|-12h14-12h14-12h14-12h14-12h14-12h14-14-12-9-|
B|---------------------------------------------|---------------------------------------------|
G|---------------------------------------------|---------------------------------------------|
D|---------------------------------------------|---------------------------------------------|
A|---------------------------------------------|---------------------------------------------|
D|---------------------------------------------|---------------------------------------------|

e|-12h14-12h14-12h14-12h14-12h14-12h14-14-12-9-|-16---14---7---------------------------------|
B|---------------------------------------------|---------------------------------------------|
G|---------------------------------------------|---------------------------------------------|
D|---------------------------------------------|---------------------------------------------|
A|---------------------------------------------|---------------------------------------------|
D|---------------------------------------------|---------------------------------------------|

   Howl...                                                                           Howl...
e|-12h14-12h14-12h14-12h14-12h14-12h14-14-12-9-|-12h14-12h14-12h14-12h14-12h14-12h14-14-12-9-|
B|---------------------------------------------|---------------------------------------------|
G|---------------------------------------------|---------------------------------------------|
D|---------------------------------------------|---------------------------------------------|
A|---------------------------------------------|---------------------------------------------|
D|---------------------------------------------|---------------------------------------------|

e|-12h14-12h14-12h14-12h14-12h14-12h14-14-12-9-|-7/9\7\2-------------------------------------|
B|---------------------------------------------|---------------------------------------------|
G|---------------------------------------------|---------------------------------------------|
D|---------------------------------------------|---------------------------------------------|
A|---------------------------------------------|---------------------------------------------|
D|---------------------------------------------|---------------------------------------------|

[Verse 2]

              I don't care for attention that much   When I do everybody stares
e|-0h2/5p0h2-|-------------------------------------|--------5/7/9----------12/14/17-|
B|-----------|---------------------------0h2/5p0h2-|--------------------------------|
G|-----------|-------------------------------------|--------------------------------|
D|-----------|-------------------------------------|--------------------------------|
A|-----------|-------------------------------------|--------------------------------|
D|-----------|-------------------------------------|--------------------------------|

   Everybody stares  I don't wanna be another old friend             I just get overlooked again
e|-9--9--9--7-7-9--|---------------------------17-14\12/14---9-7p5-|------------------------------|
B|-10-10-10-9-9-10-|-----------------------------------------------|------------------------------|
G|--------------7--|-----------------------------------------------|------------------------------|
D|--------------7--|-----------------------------------------------|------------------------------|
A|-----------------|-----------------------------------------------|------------------------------|
D|-----------------|-----------------------------------------------|------------------------------|

   Overlooked again
e|------------------|
B|------------------|
G|------------------|
D|------------------|
A|------------------|
D|------------------|

[Bridge]
(no guitar during bridge)

Oh woah oh woah
Oh woah oh

[Chorus]

Guitar 1:
   Howl...                                                                           Howl...
e|-12h14-12h14-12h14-12h14-12h14-12h14-14-12-9-|-12h14-12h14-12h14-12h14-12h14-12h14-14-12-9-|
B|---------------------------------------------|---------------------------------------------|
G|---------------------------------------------|---------------------------------------------|
D|---------------------------------------------|---------------------------------------------|
A|---------------------------------------------|---------------------------------------------|
D|---------------------------------------------|---------------------------------------------|

e|-12h14-12h14-12h14-12h14-12h14-12h14-14-12-9-|-16---14---7---------------------------------|
B|---------------------------------------------|---------------------------------------------|
G|---------------------------------------------|---------------------------------------------|
D|---------------------------------------------|---------------------------------------------|
A|---------------------------------------------|---------------------------------------------|
D|---------------------------------------------|---------------------------------------------|

   Howl...                                                                           Howl...
e|-12h14-12h14-12h14-12h14-12h14-12h14-14-12-9-|-12h14-12h14-12h14-12h14-12h14-12h14-14-12-9-|
B|---------------------------------------------|---------------------------------------------|
G|---------------------------------------------|---------------------------------------------|
D|---------------------------------------------|---------------------------------------------|
A|---------------------------------------------|---------------------------------------------|
D|---------------------------------------------|---------------------------------------------|

                                                                                      Howl!
e|-12h14-12h14-12h14-12h14-12h14-12h14-14-12-9-|-16---14---7---------------------------------|
B|---------------------------------------------|---------------------------------------------|
G|---------------------------------------------|---------------------------------------------|
D|---------------------------------------------|---------------------------------------------|
A|---------------------------------------------|---------------------------------------------|
D|---------------------------------------------|---------------------------------------------|

Guitar 2 (optional):
   Howl...                                                                           Howl...
e|---------------------------------------------|---------------------------------------------|
B|---------------------------------------------|---------------------------------------------|
G|---------------------------------------------|---------------------------------------------|
D|---------------------------------------------|---------------------------------------------|
A|---------------------------------------------|---------------------------------------------|
D|---------------------------------------------|---------------------------------------------|

e|---------------------------------------------|---------------------------------------------|
B|---------------------------------------------|---------------------------------------------|
G|---------------------------------------------|---------------------------------------------|
D|---------------------------------------------|---------------------------------------------|
A|---------------------------------------------|---------------------------------------------|
D|---------------------------------------------|---------------------------------------------|

   Howl...                                                                           Howl...
e|-----5---------------------------------------|---------------------------------------------|
B|-----7---------------------------------------|---------------------------------------------|
G|---------------------------------------------|---------------------------------------------|
D|-4-4-4---------------------------------------|---------------------------------------------|
A|-4-4-4---------------------------------------|---------------------------------------------|
D|-3-3-----------------------------------------|---------------------------------------------|

                                                                                      Howl!
e|---------------------------------------------|---------------------------------------------|
B|---------------------------------------------|---------------------------------------------|
G|---------------------------------------------|---------------------------------------------|
D|---------------------------------------------|---------------------------------------------|
A|---------------------------------------------|---------------------------------------------|
D|---------------------------------------------|---------------------------------------------|

[Instrumental]

e|-------|-------|-------|-------|-------|-------|-------|-------|
B|-------|-------|-------|-------|-------|-------|-------|-------|
G|-------|-----2-|-------|-------|-------|-----2-|-------|-------|
D|-----4-|---2---|-----2-|-----0-|-----4-|---2---|-----2-|-----0-|
A|---4---|-0-----|---2---|---0---|---4---|-0-----|---2---|---0---|
D|-3-----|-------|-1-----|-0-----|-3-----|-------|-1-----|-0-----|

[Verse 3]
(no guitar in verse 3)

I don't like playin' victim that much
'Cause my life ain't over yet, life ain't over yet
I just think of everything and everyone
So I howl, ooh

[Chorus]

   Howl...                                                                           Howl...
e|-12h14-12h14-12h14-12h14-12h14-12h14-14-12-9-|-12h14-12h14-12h14-12h14-12h14-12h14-14-12-9-|
B|---------------------------------------------|---------------------------------------------|
G|---------------------------------------------|---------------------------------------------|
D|---------------------------------------------|---------------------------------------------|
A|---------------------------------------------|---------------------------------------------|
D|---------------------------------------------|---------------------------------------------|

e|-12h14-12h14-12h14-12h14-12h14-12h14-14-12-9-|-16---14---7---------------------------------|
B|---------------------------------------------|---------------------------------------------|
G|---------------------------------------------|---------------------------------------------|
D|---------------------------------------------|---------------------------------------------|
A|---------------------------------------------|---------------------------------------------|
D|---------------------------------------------|---------------------------------------------|

   Howl...                                                                           Howl...
e|-12h14-12h14-12h14-12h14-12h14-12h14-14-12-9-|-12h14-12h14-12h14-12h14-12h14-12h14-14-12-9-|
B|---------------------------------------------|---------------------------------------------|
G|---------------------------------------------|---------------------------------------------|
D|---------------------------------------------|---------------------------------------------|
A|---------------------------------------------|---------------------------------------------|
D|---------------------------------------------|---------------------------------------------|

                                                                                      Howl!
e|-12h14-12h14-12h14-12h14-12h14-12h14-14-12-9-|-16---14---7---------------------------------|
B|---------------------------------------------|---------------------------------------------|
G|---------------------------------------------|---------------------------------------------|
D|---------------------------------------------|---------------------------------------------|
A|---------------------------------------------|---------------------------------------------|
D|---------------------------------------------|---------------------------------------------|


************************************

| h   Hammer-on
| p   Pull-off
| /   Slide up
| \   Slide down

************************************
Suggest correction
Creating personal tab
Creating personal tab
You can edit any tab online and save it as your Personal.

You can edit, replace or remove any tab part or add personal notes – all changes will be seen only by you.

Personal tabs can be accessed anytime from any device, even offline.
Learn more »
Give kudos to tab author, rate the tab!
1 2 3 4 5
comments
print report bad tab
guest
You may want to rate the tab now too:
select rating
Wanna post a correction for this tab? Suggest correction