Oops, an error
Loading. Please wait.

Isombard intro tab

version 1
version 1

Intro

Whole song

2,815 views 108 this week
3 commentsread comments
1 2 3 4 5
x 12
add to favorites
×
Save as Personal and add changes to this tab that will be seen only by you. Learn more ›
×
You can save this tab as Personal to edit and correct it or add notes. All changes will be seen only by you. Learn more »
launch autoscroll
font size
0
reset
how to read this tab
guitar tuner
edit
Autoscroll
slow
fast
+/-
esc
set tempo
stop
[Intro]

e|---------------------------------------------------------------------------|
B|--------13------13------13-----13------12-----12-----8-----8------8-----8--|
G|---------------------------------------------------------------------------|
D|---15-------15------15-----15------14-----14-----10-----10----10-----10----|
A|---------------------------------------------------------------------------|
E|---------------------------------------------------------------------------|

e|----------------------------------------------------------------------------------------------------------|
B|-----10-----10-----5-----5------5-----5------6----6-----5----5-----5-----5------0----0-----1----1----1----|
G|----------------------------------------------------------------------------------------------------------|
D|--12-----12-----7-----7------7------7------8----8----7-----7----7-----7------2-----2-----3----3----3------|
A|----------------------------------------------------------------------------------------------------------|
E|----------------------------------------------------------------------------------------------------------|


Hope you like it :D


            
            
Suggest correction
Creating personal tab
Creating personal tab
You can edit any tab online and save it as your Personal.

You can edit, replace or remove any tab part or add personal notes – all changes will be seen only by you.

Personal tabs can be accessed anytime from any device, even offline.
Learn more »
comments
print report bad tab
3 comments total.
0 reply
aloe.vera.4me4u 10 Jul 21, 2017 03:18 PM

yess

0 reply
amyhasnolife 26 Aug 01, 2017 12:24 AM, edited at 04:25 am

Does declan actually go to B|---12---G|-------D|---------10--because I can't hear that change or see it in his live performances.

guest
You may want to rate the tab now too:
select rating
Wanna post a correction for this tab? Suggest correction