Oops, an error
Loading. Please wait.

Isombard tab

version 1
version 1

Whole song

1,054 views 12 this week
no commentswrite comment
1 2 3 4 5
x 5
add to favorites
×
Save as Personal and add changes to this tab that will be seen only by you. Learn more ›
×
You can save this tab as Personal to edit and correct it or add notes. All changes will be seen only by you. Learn more »
launch autoscroll
font size
0
reset
how to read this tab
guitar tuner
edit
Autoscroll
slow
fast
+/-
esc
set tempo
stop
Author
Difficulty
[Intro]
Piano
e|-------------------------------------------------------------------------------------------|
B|-------------------------------------------------------------------------------------------|
G|-----5---5---5---5---4---4---0---0---0---0---2---2-----------------------------------------|
D|-------7-------7-------5-------2-------2-------3-----2---2---2---2---3---3---2---2---2---2-|
A|---8-------8-------7-------3-------3-------5-----------3-------3-------5-------3-------3---|
E|---------------------------------------------------5-------5-------6-------5-------5-------|

e|-------------------------------------------|
B|-------------------------------------------|
G|-------------------------------------------|
D|-------------------------------------------| x2
A|-----2---2---3---3---3---3---3---3---3---3-|
E|---0---3---1---5---1---5---1---5---1---5---|

Guitar 1 (0:12)
e|--------------------------------------------------------------------------------------|
B|------13----13----13----13----12----12----8---8----8---8----10----10---5---5---5---5--|
G|---------14----------14----------12---------9--------9---------10--------5-------5----|
D|---15----------15----------14----------10-------10-------12----------7-------7--------|
A|--------------------------------------------------------------------------------------|
E|--------------------------------------------------------------------------------------|

e|--------------------------------------------------13~----|
B|-----6---6---5---5---5---5---0---0---1---1------13~------|
G|-------7-------5-------5-------0-------2------14~--------|
D|---8-------7-------7-------2-------3--------15~----------|
A|---------------------------------------------------------|
E|---------------------------------------------------------|

[Verse]
Piano
e|-------------------------------------------------------------------------------------------|
B|-------------------------------------------------------------------------------------------|
G|-----5---5---5---5---4---4---0---0---0---0---2---2-----------------------------------------|
D|-------7-------7-------5-------2-------2-------3-----2---2---2---2---3---3---2---2---2---2-|
A|---8-------8-------7-------3-------3-------5-----------3-------3-------5-------3-------3---|
E|---------------------------------------------------5-------5-------6-------5-------5-------|

e|-------------------------------------------|
B|-------------------------------------------|
G|-------------------------------------------|
D|-------------------------------------------| x3
A|-----2---2---3-0-3---3-0-3---3-0-3---3-0-3-|
E|---0---3---1-------1-------1-------1-------|

Guitar 2 (0:22)
e|---------------------------------------------------------------------------------|
B|---------------------------------------------------------------------------------|
G|---------------------------------------------------------------------------------|
D|---------------------------------------------------------------------------------|
A|---------------------------------------------------------------------------------|
E|--13--13-13--13-13--12--12--8--8-8--8-8--10--10--5--5-5--5-5--6--6--5--5-5--5-5--|

e|-------------------------------------|
B|-------------------------------------|
G|-------------------------------------|  x3
D|-------------------------------------|
A|-------------------------------------|
E|--3--0--1--1-1--1-0-1--1--1-1--1-0-1-|

Guitar 1 (0:35)
e|--12~--|
B|--12~--|
G|--12~--|
D|-------|
A|-------|
E|-------|

[Pre-Chorus]
Piano
e|-------------------------------------------------------------------------------------------|
B|-------------------------------------------------------------------------------------------|
G|-----5---5---5---5---4---4---0---0---0---0---2---2-----------------------------------------|
D|-------7-------7-------5-------2-------2-------3-----2---2---2---2---3---3---2---2---2---2-|
A|---8-------8-------7-------3-------3-------5-----------3-------3-------5-------3-------3---|
E|---------------------------------------------------5-------5-------6-------5-------5-------|

e|-------------------------------------------|
B|-------------------------------------------|
G|-------------------------------------------|  Repeat
D|-------------------------------------------| 
A|-----2---2---3---3---3---3---3---3---3---3-|
E|---0---3---1---5---1---5---1---5---1---5---|

Guitar 1
e|--------------------------------------------------------------------------------------|
B|------13----13----13----13----12----12----8---8----8---8----10----10---5---5---5---5--|
G|---------14----------14----------12---------9--------9---------10--------5-------5----|
D|---15----------15----------14----------10-------10-------12----------7-------7--------|
A|--------------------------------------------------------------------------------------|
E|--------------------------------------------------------------------------------------|

e|------------------------------------------------------------------------|
B|-----6---6---5---5---5---5---0---0---1---1---1---1---1---1---1---1------|
G|-------7-------5-------5-------0-------2-------2-------2-------2--------| Repeat
D|---8-------7-------7-------2-------3-------3-------3-------3------------|
A|------------------------------------------------------------------------|
E|------------------------------------------------------------------------|

[Chorus] (0:55)
Guitar 1
e|--13~--10~--5~--0~-|
B|--13~--10~--5~--0~-|
G|--14~--10~--5~--0~-|
D|--15~--12~--7~--2~-| x4
A|-------------------|
E|-------------------|

Guitar 2
e|---------------------------------------------------------------------------|
B|---------------------------------------------------------------------------|
G|---------------------------------------------------------------------------|
D|---------------------------------------------------------------------------| x4
A|---------------------------------------------------------------------------|
E|--13--13-13--13-13--12--10--10-10--10-10-8-5--5-5--5-5--3-1-0--0-0--0-0-0--|

Guitar 3
e|-----------------------------15-----------------------------|
B|---------------------15-17-18--18-17-15---------------------|
G|------------14-15-17-------------------17-15-14-------------|
D|----14-15-17-----------------------------------17-15-14-----|
A|--17----------------------------------------------------17~-|
E|------------------------------------------------------------|

[Verse 2]
Guitar 2
(1:24)
e|---------------------------------------------------------------------------------|
B|---------------------------------------------------------------------------------|
G|---------------------------------------------------------------------------------|
D|---------------------------------------------------------------------------------|
A|---------------------------------------------------------------------------------|
E|--13--13-13--13-13--12--12--8--8-8--8-8--10--10--5--5-5--5-5--6--6--5--5-5--5-5--|

e|-------------------------------------|
B|-------------------------------------|
G|-------------------------------------|  x4
D|-------------------------------------|
A|-------------------------------------|
E|--3--0--1--1-1--1-0-1--1--1-1--1-0-1-|

Guitar 1
(1:35)
e|--------------------------------------------------------------------------------------|
B|------13----13----13----13----12----12----8---8----8---8----10----10---5---5---5---5--|
G|---------14----------14----------12---------9--------9---------10--------5-------5----|
D|---15----------15----------14----------10-------10-------12----------7-------7--------|
A|--------------------------------------------------------------------------------------|
E|--------------------------------------------------------------------------------------|

e|------------------------------------------------------------------------|
B|-----6---6---5---5---5---5---0---0---1---1---1---1---1---1---1---1------|
G|-------7-------5-------5-------0-------2-------2-------2-------2--------|
D|---8-------7-------7-------2-------3-------3-------3-------3------------| x3
A|------------------------------------------------------------------------|
E|------------------------------------------------------------------------|

[Pre-Chorus]
Guitar 2
(2:07)
e|------------------------------|
B|------------------------------|
G|------------------------------|
D|------------------------------| Repeat
A|------12----------------------|
E|---13----13/--10-13/5--8-5--0-|

Guitar 1
(2:16)
e|----------------------------------|
B|----------------------------------|
G|----------------------------------|
D|----------------------------------| Repeat 
A|---------12-----------------------|
E|---12-13----10--12-10-8-5-----3p0-|

[Chorus]
(2:43)
Guitar 1
e|--13~--10~--5~--0~-|
B|--13~--10~--5~--0~-|
G|--14~--10~--5~--0~-|
D|--15~--12~--7~--2~-| x4
A|-------------------|
E|-------------------|

Guitar 2
e|---------------------------------------------------------------------------|
B|---------------------------------------------------------------------------|
G|---------------------------------------------------------------------------|
D|---------------------------------------------------------------------------| x4
A|---------------------------------------------------------------------------|
E|--13--13-13--13-13--12--10--10-10--10-10-8-5--5-5--5-5--3-1-0--0-0--0-0-0--|

Guitar 3
e|-----------------------------15-----------------------------|
B|---------------------15-17-18--18-17-15---------------------|
G|------------14-15-17-------------------17-15-14-------------|
D|----14-15-17-----------------------------------17-15-14-----|
A|--17----------------------------------------------------17~-|
E|------------------------------------------------------------|

[Outro]
e|---------------------------------------------------------------------------|
B|---------------------------------------------------------------------------|
G|---------------------------------------------------------------------------|
D|---------------------------------------------------------------------------| x4
A|---------------------------------------------------------------------------|
E|--13-13-13-13-12-12-12-12-10-10-10-10-8-8-8-8-5-5-5-5-5-5-5-5-3-1-0-0-0-0--|

e|---------------------------------------------------------------|
B|---------------------------------------------------------------|
G|---10-9---10-9---10-9---10-9---10-9---10-9----10-9-10-12-10-9--|
D|---------------------------------------------------------------|
A|---------------------------------------------------------------|
E|---------------------------------------------------------------|

e|---------------------------------------------------------------|
B|----10-8---10-8---10-8---10-8---10-8---10-8---10-8-10-12-10-8--|
G|---------------------------------------------------------------|
D|---------------------------------------------------------------|
A|---------------------------------------------------------------|
E|---------------------------------------------------------------|


************************************

| p   Pull-off
| /   Slide up
| \   Slide down
| ~   Vibrato

************************************

            
            
Suggest correction
Creating personal tab
Creating personal tab
You can edit any tab online and save it as your Personal.

You can edit, replace or remove any tab part or add personal notes – all changes will be seen only by you.

Personal tabs can be accessed anytime from any device, even offline.
Learn more »
comments
print report bad tab
guest
You may want to rate the tab now too:
select rating
Wanna post a correction for this tab? Suggest correction