Oops, an error
Loading. Please wait.

Little Pieces tab

version 1
version 1

Whole song

  • This tab is of Declan Mckenna's unreleased song ca... Show more
160 views 12 this week
no commentswrite comment
1 2 3 4 5
2 more votes to show rating
add to favorites
×
Save as Personal and add changes to this tab that will be seen only by you. Learn more ›
×
You can save this tab as Personal to edit and correct it or add notes. All changes will be seen only by you. Learn more »
launch autoscroll
font size
0
reset
how to read this tab
guitar tuner
edit
Autoscroll
slow
fast
+/-
esc
set tempo
stop
About this tab version
This tab is of Declan Mckenna's unreleased song called Little Pieces, recorded when he was 12. This was tabbed by ear from this lyric video (https://www.youtube.com/watch?v=-dfbHICGxIk) so if you hear anything wrong please feel free to correct it. There is already a tab of the vibraphone part in the intro, but there was not one of the acoustic guitar so I made this for me and everyone else who enjoys Declan's music. Played at 131 BPM and all slides between chords are slow. Was this info helpful? Yes No
[Intro]
  1   e   +   a   2   e   +   a   3   e   +   a   4   e   +   a    
e|----------------------------------------------------------------|
B|----------------------------------------------------------------|
G|----2-----------------------------------------------10----------|
D|--------------------------------------------------------12------|
A|----------------------------------------------------------------|
E|1-----------1----------------------------------/10----------10--|

  1   e   +   a   2   e   +   a   3   e   +   a   4   e   +   a     
e|----------------------------------------------------------------|
B|----------------------------------------------------------------|
G|----9-------------------9h10----9-------------------7-----------|
D|--------10----------------------------------------------8-------|
A|------------------------------------------------------------8---|
E|8-----------8-----------------------------------6---------------|

  1   e   +   a   2   e   +   a   3   e   +   a   4   e   +   a    
e|----------------------------------------------------------------|
B|----------------------------------------------------------------|
G|----2-----------------------------------------------10----------|
D|--------3-----------------------------------------------12------|
A|----------------------------------------------------------------|
E|1-----------1----------------------------------/10----------10--|

  1   e   +   a   2   e   +   a   3   e   +   a   4   e   +   a     
e|----------------------------------------------------------------|
B|----------------------------------------------------------------|
G|----9-------------------9h10----9-------------------7-----------|
D|--------10----------------------------------------------8-------|
A|------------------------------------------------------------8---|
E|8-----------8-----------------------------------6---------------|

[Verse 1]
  1   e   +   a   2   e   +   a   3   e   +   a   4   e   +   a   
e|----------------------------------------------------------------|
B|----------------------------------------------------------------|
G|----2-----------------------------------------------10----------|
D|--------3-----------------------------------------------12------|
A|----------------------------------------------------------------|
E|1-----------1-----------------------------------10----------10--|

  1   e   +   a   2   e   +   a   3   e   +   a   4   e   +   a   
e|----------------------------------------------------------------|
B|----------------------------------------------------------------|
G|----9-----------------------------------------------10----------|
D|--------10----------------------------------------------12------|
A|----------------------------------------------------------------|
E|8-----------8-----------------------------------10----------10--|

  1   e   +   a   2   e   +   a   3   e   +   a   4   e   +   a   
e|----------------------------------------------------------------|
B|----------------------------------------------------------------|
G|----9-----------------------------------------------------------|
D|--------10------------------------------------------10--10------|
A|----------------------------------------------------10--10------|
E|8-----------8---------------------------------------8---8-------|

  1   e   +   a   2   e   +   a   3   e   +   a   4   e   +   a   
e|----------------------------------------------------------------|
B|----------------------------------------------------------------|
G|----------------------------------------------------------------|
D|8---------------------------------------------------8---8-------|
A|8---------------------------------------------------8---8-------|
E|6---------------------------------------------------6---6-------|

[Verse 2]
  1   e   +   a   2   e   +   a   3   e   +   a   4   e   +   a   
e|----------------------------------------------------------------|
B|----------------------------------------------------------------|
G|2---2---2---2---2---2---2---2---10--10--10--10--10--10--10--10--|
D|3---3---3---3---3---3---3---3---12--12--12--12--12--12--12--12--|
A|----------------------------------------------------------------|
E|1---1---1---1---1---1---1---1---10--10--10--10--10--10--10--10--|
                                                          
  1   e   +   a   2   e   +   a   3   e   +   a   4   e   +   a   
e|--------------------------------------------------------6-------|
B|--------------------------------------------------------6-------|
G|9---10--9---10--9---9---10--9---7-----------------------7-------|
D|10--10--10--10--10--10--10--10--8-------------------8---8---8---|
A|----------------------------------------------------8---8---8---|
E|8---8---8---8---8---8---8---8---6-------------------6---6---6---|

[Chorus]                                                   
  1   e   +   a   2   e   +   a   3   e   +   a   4   e   +   a   
e|--------1-----------1---------------1---------------1----------/|
B|--------1-----------1---------------1---------------1----------/|
G|--------2-----------2---------------2---------------2----------/|
D|3---------------3-----------3---------------3------------------/|
A|3---------------3-----------3---------------3------------------/|
E|1---------------1-----------1---------------1------------------/|
                                                 
  1   e   +   a   2   e   +   a   3   e   +   a   4   e   +   a   
e|--------10----------10--------------10--------------10----------|
B|--------10----------10--------------10--------------10----------|
G|--------10----------10--------------10--------------10----------|
D|12--------------12----------12--------------12------------------|
A|12--------------12----------12--------------12------------------|
E|10--------------10----------10--------------10------------------|

  1   e   +   a   2   e   +   a   3   e   +   a   4   e   +   a   
e|--------8-----------8---------------8---------------8-----------|
B|--------8-----------8---------------8---------------8-----------|
G|--------9-----------9---------------9---------------9-----------|
D|10--------------10----------10--------------10------------------|
A|10--------------10----------10--------------10------------------|
E|8---------------8-----------8---------------8-------------------|

  1   e   +   a   2   e   +   a   3   e   +   a   4   e   +   a   
e|--------6-----------6---------------6---------------6-----------|
B|--------6-----------6---------------6---------------6-----------|
G|--------7-----------7---------------7---------------7-----------|
D|8---------------8-----------8---------------8-------------------|
A|8---------------8-----------8---------------8-------------------|
E|6---------------6-----------6---------------6-------------------|

  1   e   +   a   2   e   +   a   3   e   +   a   4   e   +   a   
e|--------1-----------1---------------1---------------1----------/|
B|--------1-----------1---------------1---------------1----------/|
G|--------2-----------2---------------2---------------2----------/|
D|3---------------3-----------3---------------3------------------/|
A|3---------------3-----------3---------------3------------------/|
E|1---------------1-----------1---------------1------------------/|
                                                 
  1   e   +   a   2   e   +   a   3   e   +   a   4   e   +   a   
e|--------10----------10--------------10--------------10----------|
B|--------10----------10--------------10--------------10----------|
G|--------10----------10--------------10--------------10----------|
D|12--------------12----------12--------------12------------------|
A|12--------------12----------12--------------12------------------|
E|10--------------10----------10--------------10------------------|

  1   e   +   a   2   e   +   a   3   e   +   a   4   e   +   a   
e|--------8-----------8---------------8---------------8-----------|
B|--------8-----------8---------------8---------------8-----------|
G|--------9-----------9---------------9---------------9-----------|
D|10--------------10----------10--------------10------------------|
A|10--------------10----------10--------------10------------------|
E|8---------------8-----------8---------------8-------------------|

  1   e   +   a   2   e   +   a   3   e   +   a   4   e   +   a   
e|6---------------------------------------------------------------|
B|6---------------------------6---------------6-------------------|
G|7---------------------------------------------------------------|
D|8---------------------------------------------------------------|
A|8---------------------------------------------------------------|
E|6---------------------------------------------------------------|

[Refrain]
  1   e   +   a   2   e   +   a   3   e   +   a   4   e   +   a    
e|----------------------------------------------------------------|
B|----------------------------------------------------------------|
G|----2-----------------------------------------------10----------|
D|--------------------------------------------------------12------|
A|----------------------------------------------------------------|
E|1-----------1----------------------------------/10----------10--|

  1   e   +   a   2   e   +   a   3   e   +   a   4   e   +   a     
e|----------------------------------------------------------------|
B|----------------------------------------------------------------|
G|----9-------------------9h10----9-------------------7-----------|
D|--------10----------------------------------------------8-------|
A|------------------------------------------------------------8---|
E|8-----------8-----------------------------------6---------------|

  1   e   +   a   2   e   +   a   3   e   +   a   4   e   +   a    
e|----------------------------------------------------------------|
B|----------------------------------------------------------------|
G|----2-----------------------------------------------10----------|
D|--------3-----------------------------------------------12------|
A|----------------------------------------------------------------|
E|1-----------1----------------------------------/10----------10--|

  1   e   +   a   2   e   +   a   3   e   +   a   4   e   +   a     
e|----------------------------------------------------------------|
B|----------------------------------------------------------------|
G|----9-------------------9h10----9-------------------7-----------|
D|--------10----------------------------------------------8-------|
A|------------------------------------------------------------8---|
E|8-----------8-----------------------------------6---------------|
 
[Verse 3]
  1   e   +   a   2   e   +   a   3   e   +   a   4   e   +   a    
e|----------------------------------------------------------------|
B|----------------------------------------------------------------|
G|----2-----------------------------------------------10----------|
D|--------3-----------------------------------------------12------|
A|----------------------------------------------------------------|
E|1-----------1----------------------------------/10----------10--|

  1   e   +   a   2   e   +   a   3   e   +   a   4   e   +   a     
e|----------------------------------------------------------------|
B|----------------------------------------------------------------|
G|----9-----------------------------------------------7-----------|
D|--------10----------------------------------------------8-------|
A|------------------------------------------------------------8---|
E|8-----------8-----------------------------------6---------------|

  1   e   +   a   2   e   +   a   3   e   +   a   4   e   +   a    
e|----------------------------------------------------------------|
B|----------------------------------------------------------------|
G|----2-----------------------------------------------10----------|
D|--------3-----------------------------------------------12------|
A|----------------------------------------------------------------|
E|1-----------1----------------------------------/10----------10--|

  1   e   +   a   2   e   +   a   3   e   +   a   4   e   +   a     
e|----------------------------------------------------------------|
B|----------------------------------------------------------------|
G|----9-------------------9h10----9-------------------7-----------|
D|--------10----------------------------------------------8-------|
A|------------------------------------------------------------8---|
E|8-----------8-----------------------------------6---------------|

  1   e   +   a   2   e   +   a   3   e   +   a   4   e   +   a    
e|----------------------------------------------------------------|
B|----------------------------------------------------------------|
G|----2-----------------------------------------------10----------|
D|--------3-----------------------------------------------12------|
A|----------------------------------------------------------------|
E|1-----------1----------------------------------/10----------10--|

  1   e   +   a   2   e   +   a   3   e   +   a   4   e   +   a     
e|----------------------------------------------------------------|
B|----------------------------------------------------------------|
G|----9-------------------9h10----9-------------------7-----------|
D|--------10----------------------------------------------8-------|
A|------------------------------------------------------------8---|
E|8-----------8-----------------------------------6---------------|
 
  1   e   +   a   2   e   +   a   3   e   +   a   4   e   +   a   
e|8---8-------8---8---8-------8---8---8-------8---8---8-------8---|
B|8---8-------8---8---8-------8---8---8-------8---8---8-------8---|
G|9---9-------9---9---9-------9---9---9-------9---9---9-------9---|
D|10--10------10--10--10------10--10--10------10--10--10------10--|
A|10--10------10--10--10------10--10--10------10--10--10------10--|
E|8---8-------8---8---8-------8---8---8-------8---8---8-------8---|

  1   e   +   a   2   e   +   a   3   e   +   a   4   e   +   a   
e|8-------------------------------------------------------8-------|
B|8-------------------------------------------------------8-------|
G|9-------------------------------------------------------9-------|
D|10--------------------------------------------------10--10--10--|
A|10--------------------------------------------------10--10--10--|
E|8---------------------------------------------------8---8---8---|

[Chorus]
  1   e   +   a   2   e   +   a   3   e   +   a   4   e   +   a   
e|--------1-----------1---------------1---------------1----------/|
B|--------1-----------1---------------1---------------1----------/|
G|--------2-----------2---------------2---------------2----------/|
D|3---------------3-----------3---------------3------------------/|
A|3---------------3-----------3---------------3------------------/|
E|1---------------1-----------1---------------1------------------/|
                                                 
  1   e   +   a   2   e   +   a   3   e   +   a   4   e   +   a   
e|--------10----------10--------------10--------------10----------|
B|--------10----------10--------------10--------------10----------|
G|--------10----------10--------------10--------------10----------|
D|12--------------12----------12--------------12------------------|
A|12--------------12----------12--------------12------------------|
E|10--------------10----------10--------------10------------------|

  1   e   +   a   2   e   +   a   3   e   +   a   4   e   +   a   
e|--------8-----------8---------------8---------------8-----------|
B|--------8-----------8---------------8---------------8-----------|
G|--------9-----------9---------------9---------------9-----------|
D|10--------------10----------10--------------10------------------|
A|10--------------10----------10--------------10------------------|
E|8---------------8-----------8---------------8-------------------|

  1   e   +   a   2   e   +   a   3   e   +   a   4   e   +   a   
e|--------6-----------6---------------6---------------6-----------|
B|--------6-----------6---------------6---------------6-----------|
G|--------7-----------7---------------7---------------7-----------|
D|8---------------8-----------8---------------8-------------------|
A|8---------------8-----------8---------------8-------------------|
E|6---------------6-----------6---------------6-------------------|

  1   e   +   a   2   e   +   a   3   e   +   a   4   e   +   a   
e|--------1-----------1---------------1---------------1----------/|
B|--------1-----------1---------------1---------------1----------/|
G|--------2-----------2---------------2---------------2----------/|
D|3---------------3-----------3---------------3------------------/|
A|3---------------3-----------3---------------3------------------/|
E|1---------------1-----------1---------------1------------------/|
                                                 
  1   e   +   a   2   e   +   a   3   e   +   a   4   e   +   a   
e|--------10----------10--------------10--------------10----------|
B|--------10----------10--------------10--------------10----------|
G|--------10----------10--------------10--------------10----------|
D|12--------------12----------12--------------12------------------|
A|12--------------12----------12--------------12------------------|
E|10--------------10----------10--------------10------------------|

  1   e   +   a   2   e   +   a   3   e   +   a   4   e   +   a   
e|--------8-----------8---------------8---------------8-----------|
B|--------8-----------8---------------8---------------8-----------|
G|--------9-----------9---------------9---------------9-----------|
D|10--------------10----------10--------------10------------------|
A|10--------------10----------10--------------10------------------|
E|8---------------8-----------8---------------8-------------------|

  1   e   +   a   2   e   +   a   3   e   +   a   4   e   +   a   
e|6---------------------------------------------------------------|
B|6---------------------------6---------------6-----------6-------|
G|7---------------------------------------------------------------|
D|8---------------------------------------------------------------|
A|8---------------------------------------------------------------|
E|6---------------------------------------------------------------|

[Bridge]
  1   e   +   a   2   e   +   a   3   e   +   a   4   e   +   a   
e|1------------------------------/10------------------------------|
B|1------------------------------/10------------------------------|
G|2------------------------------/10------------------------------|
D|3------------------------------/12------------------------------|
A|3------------------------------/12------------------------------|
E|1------------------------------/10------------------------------|

  1   e   +   a   2   e   +   a   3   e   +   a   4   e   +   a   
e|1------------------------------/10------------------------------|
B|1------------------------------/10------------------------------|
G|2------------------------------/10------------------------------|
D|3------------------------------/12------------------------------|
A|3------------------------------/12------------------------------|
E|1------------------------------/10------------------------------|

  1   e   +   a   2   e   +   a   3   e   +   a   4   e   +   a   
e|1------------------------------/10------------------------------|
B|1------------------------------/10------------------------------|
G|2------------------------------/10------------------------------|
D|3------------------------------/12------------------------------|
A|3-----------5-------3----------/12----------3-------------------|
E|1------------------------------/10------------------5-----------|

  1   e   +   a   2   e   +   a   3   e   +   a   4   e   +   a   
e|1------------------------------/10----------------------10------|
B|1------------------------------/10----------------------10------|
G|2------------------------------/10----------------------10------|
D|3------------------------------/12----------------------12--12--|
A|3-----------5-------3----------/12----------3-----------12--12--|
E|1------------------------------/10------------------5---10--10--|

  1   e   +   a   2   e   +   a   3   e   +   a     4   e   +   a   
e|--------1---------------1---------------10----------------10------|
B|--------1---------------1---------------10----------------10------|
G|2---2---2---2---2---2---2---2--/10--10--10--10-10-10--10--10--10--|
D|3---3---3---3---3---3---3---3--/12--12--12--12-12-12--12--12--12--|
A|3---3---3---3---3---3---3---3--/12--12--12--12-12-12--12--12--12--|
E|1---1---1---1---1---1---1---1--/10--10--10--10-10-10--10--10--10--|

  1   e   +   a   2   e   +   a   3   e     +   a     4   e   +   a   
e|--------1---------------1-----------------10----------------10------|
B|--------1---------------1-----------------10----------------10------|
G|2---2---2---2-2-2---2-2-2---2--/10--10-10-10--10-10-10--10--10--10--|
D|3---3---3---3-3-3---3-3-3---3--/12--12-12-12--12-12-12--12--12--12--|
A|3---3---3---3-3-3---3-3-3---3--/12--12-12-12--12-12-12--12--12--12--|
E|1---1---1---1-1-1---1-1-1---1--/10--10-10-10--10-10-10--10--10--10\-|

[Final Chorus]
  1   e   +   a   2   e   +   a   3   e   +   a   4   e   +   a   
e|--------1-----------1---------------1---------------1----------/|
B|--------1-----------1---------------1---------------1----------/|
G|--------2-----------2---------------2---------------2----------/|
D|3---------------3-----------3---------------3------------------/|
A|3---------------3-----------3---------------3------------------/|
E|1---------------1-----------1---------------1------------------/|
                                                 
  1   e   +   a   2   e   +   a   3   e   +   a   4   e   +   a   
e|--------10----------10--------------10--------------10----------|
B|--------10----------10--------------10--------------10----------|
G|--------10----------10--------------10--------------10----------|
D|12--------------12----------12--------------12------------------|
A|12--------------12----------12--------------12------------------|
E|10--------------10----------10--------------10------------------|

  1   e   +   a   2   e   +   a   3   e   +   a   4   e   +   a   
e|--------8-----------8---------------8---------------8-----------|
B|--------8-----------8---------------8---------------8-----------|
G|--------9-----------9---------------9---------------9-----------|
D|10--------------10----------10--------------10------------------|
A|10--------------10----------10--------------10------------------|
E|8---------------8-----------8---------------8-------------------|

  1   e   +   a   2   e   +   a   3   e   +   a   4   e   +   a   
e|--------6-----------6---------------6---------------6-----------|
B|--------6-----------6---------------6---------------6-----------|
G|--------7-----------7---------------7---------------7-----------|
D|8---------------8-----------8---------------8-------------------|
A|8---------------8-----------8---------------8-------------------|
E|6---------------6-----------6---------------6-------------------|

  1   e   +   a   2   e   +   a   3   e   +   a   4   e   +   a   
e|--------1-----------1---------------1---------------1----------/|
B|--------1-----------1---------------1---------------1----------/|
G|--------2-----------2---------------2---------------2----------/|
D|3---------------3-----------3---------------3------------------/|
A|3---------------3-----------3---------------3------------------/|
E|1---------------1-----------1---------------1------------------/|
                                                 
  1   e   +   a   2   e   +   a   3   e   +   a   4   e   +   a   
e|--------10----------10--------------10--------------10----------|
B|--------10----------10--------------10--------------10----------|
G|--------10----------10--------------10--------------10----------|
D|12--------------12----------12--------------12------------------|
A|12--------------12----------12--------------12------------------|
E|10--------------10----------10--------------10------------------|

  1   e   +   a   2   e   +   a   3   e   +   a   4   e   +   a   
e|--------8-----------8---------------8---------------8-----------|
B|--------8-----------8---------------8---------------8-----------|
G|--------9-----------9---------------9---------------9-----------|
D|10--------------10----------10--------------10------------------|
A|10--------------10----------10--------------10------------------|
E|8---------------8-----------8---------------8-------------------|

  1   e   +   a   2   e   +   a   3   e   +   a   4   e   +   a   
e|6---------------------------------------------------------------|
B|6---------------------------6---------------6-------------------|
G|7---------------------------------------------------------------|
D|8---------------------------------------------------------------|
A|8---------------------------------------------------------------|
E|6---------------------------------------------------------------|

[Outro]
  1   e   +   a   2   e   +   a   3   e   +   a   4   e   +   a   
e|----------------------------------------------------------------|
B|----------------------------------------------------------------|
G|----------------------------------------------------------------|
D|--------------------------------9~--------------10~-------------|
A|----------------------------------------------------------------|
E|----------------------------------------------------------------|

                                  |-------3-------|-------3-------| - Triplets
  1   e   +   a   2   e   +   a   3   e   +   a   4   e   +   a   
e|----------------------------------------------------------------|
B|----------------------------------------------------------------|
G|----------------------------------------------------------------|
D|12~-----------------------------14----12----14--14/15---14---12-|
A|----------------------------------------------------------------|
E|----------------------------------------------------------------|
           
  1   e   +   a   2   e   +   a   3   e   +   a   4   e   +   a   
e|----------------------------------------------------------------|
B|----------------------------------------------------------------|
G|----------------------------------------------------------------|
D|10--------------------------10/12\10-----8-------7--------------|
A|----------------------------------------------------------------|
E|----------------------------------------------------------------|

  1   e   +   a   2   e   +   a   3   e   +   a   4   e   +   a   
e|1---------------------------------------------------------------|
B|1---------------------------------------------------------------|
G|2---------------------------------------------------------------|
D|3---------------------------------------------------------------|
A|3---------------------------------------------------------------|
E|1-------------------------------10------\8--------------\1------|



************************************

| /  Slide up
| h  Hammer-on
| \  Slide down
| ~  Vibrato

************************************

            
            
Suggest correction
Creating personal tab
Creating personal tab
You can edit any tab online and save it as your Personal.

You can edit, replace or remove any tab part or add personal notes – all changes will be seen only by you.

Personal tabs can be accessed anytime from any device, even offline.
Learn more »
Give kudos to tab author, rate the tab!
1 2 3 4 5
comments
print report bad tab
guest
You may want to rate the tab now too:
select rating
Wanna post a correction for this tab? Suggest correction