Oops, an error
Loading. Please wait.

Paracetamol bass

871 views 36 this week
no commentswrite comment
1 2 3 4 5
x 6
add to favorites
×
Save as Personal and add changes to this tab that will be seen only by you. Learn more ›
×
You can save this tab as Personal to edit and correct it or add notes. All changes will be seen only by you. Learn more »
launch autoscroll
font size
0
reset
guitar tuner
edit
Autoscroll
slow
fast
+/-
esc
set tempo
stop
About this tab version
The bass in the bridge is barely audible, so if you want to match that make sure to play quietly in that part. Enjoy :). Was this info helpful? Yes No
[Intro]

0:11-0:22
G|-------|-------|-------------|-------|-------|-----------|
D|-------|-------|-------------|-2---2-|-0---0-|-----------|
A|-------|-----2-|-3---2-3---3-|-------|-------|-3---2-3-3-|
E|-3---3-|-2-----|-------------|-------|-------|-----------|

[Verse]

There's a boy, fifteen, with a gun in his hand
G|-------|--------------------|------------------|-------------|
D|-------|--------------------|------------------|-------------|
A|-------|--------------------|----------------2-|-3---2-3---3-|
E|-------|-3-------------3----|-2----------------|-------------|

And the people with no audience say should be hanged
G|------------------------------|---------------------|-----------|
D|------------------------------|---------------------|-----------|
A|------0---------------------0-|-3-----------------3-|-----------|
E|------------------------------|---------------------|-3---2-3-3-|

And they ask him for his motive but they don't understand
G|-------------------------------------|---------------|-------------|
D|-------------------------------------|---------------|-------------|
A|-------------------------------------|-------------2-|-3---2-3---3-|
E|--------3--------------------------3-|-2-------------|-------------|

Why they love like they do, like they do
G|--------------|------------|---------------|
D|-------2----2-|------------|---------------|
A|--------------|-3--------3-|---------------|
E|--------------|------------|-3-------2-3-3-|

There's a girl, fifteen, with her head in a noose
G|-------|------------------------|------------------|-------------|
D|-------|------------------------|------------------|-------------|
A|-------|------------------------|----------------2-|-3---2-3---3-|
E|-------|-3--------------------3-|-2----------------|-------------|

Because she's damned to live, well she's damned to choose
G|--------------------------------|------------------------|-----------|
D|--------------------------------|------------------------|-----------|
A|------0-----------------------0-|-3--------------------3-|-----------|
E|--------------------------------|------------------------|-3---2-3-3-|

And the animals walked in twos by twos
G|------------------------|---------------|-------------|
D|------------------------|---------------|-------------|
A|------------------------|-------------2-|-3---2-3---3-|
E|--------3-------------3-|-2-------------|-------------|

Showing love like they do, like they do
G|-----------------|------------|--------------|
D|-------2-------2-|-0--------0-|--------------|
A|-----------------|------------|-3------2-3-3-|
E|-----------------|------------|--------------|

There's a girl, fifteen, although she isn't sure
G|-------|------------------------|------------------|-------------|
D|-------|------------------------|------------------|-------------|
A|-------|------------------------|----------------2-|-3---2-3---3-|
E|-------|-3--------------------3-|-2----------------|-------------|

Well how the hell could you want anything more?
G|--------------------------------|-----------------|-----------|
D|--------------------------------|-----------------|-----------|
A|------0-----------------------0-|-3-------------3-|-----------|
E|--------------------------------|-----------------|-3---2-3-3-|

A beautiful, perfect, immaculate whore
G|-----------------------|---------------|-------------|
D|-----------------------|---------------|-------------|
A|-----------------------|-------------2-|-3---2-3---3-|
E|-3-------------------3-|-2-------------|-------------|

I'm in love, love with you, love with you
G|---------------|--------------|----------------|
D|-----2-------2-|------0-----0-|----------------|
A|---------------|--------------|-----3----2-3-3-|
E|---------------|--------------|----------------|

[Chorus]

Oh, won't you let me finish
G|-------------------|-0---|-----|-----|
D|-------------------|-----|-2---|-----|
A|-------------------|-----|-----|-3---|
E|-------------------|-----|-----|-----|

You drive me insane
G|------------|-0---|-----|-----|
D|------------|-----|-2---|-----|
A|---3--------|-----|-----|-3---|
E|------------|-----|-----|-----|

The world will keep on turning
G|-------------------|-0---|-----|-----|
D|-------------------|-----|-2---|-----|
A|---3---------------|-----|-----|-3---|
E|-------------------|-----|-----|-----|

Even if we're not the same
G|-------------------|-------|
D|-------------------|-------|
A|---3---------------|-0---3-|
E|-------------------|-------|

Don't come on to me, come on to me
G|--------|-0------------|-0-------|
D|--------|--------------|---------|
A|--------|--------------|---------|
E|--------|--------------|---------|

[Instrumental]

G|-------|-------|-------------|-------|-------|-----------|
D|-------|-------|-------------|-------|-------|-----------|
A|-------|-----2-|-3---2-3---3-|-0---0-|-3---3-|-----------|
E|-3---3-|-2-----|-------------|-------|-------|-3---2-3-3-|

[Verse 2]

There's a boy, fifteen, turning into a man
G|-------|------------------------|-----------|-------------|
D|-------|------------------------|-----------|-------------|
A|-------|------------------------|---------2-|-3---2-3---3-|
E|-------|-3--------------------3-|-2---------|-------------|

Well tell me one other thing that he can
G|---------------------------|-------------|-----------|
D|---------------------------|-------------|-----------|
A|---0---------------------0-|-3---------3-|-----------|
E|---------------------------|-------------|-3---2-3-3-|

While you forced a smile through a jealous hand
G|------------------------|-------------------|-------------|
D|------------------------|-------------------|-------------|
A|------------------------|-----------------2-|-3---2-3---3-|
E|----3-----------------3-|-2-----------------|-------------|

Showing love like you do, like you do
G|--------------|------------|---------------|
D|-------2----2-|------------|---------------|
A|--------------|-3--------3-|---------------|
E|--------------|------------|-3-------2-3-3-|

There's a boy, fifteen, and he's attempted to sue
G|-------|------------------------|----------------|-------------|
D|-------|------------------------|----------------|-------------|
A|-------|------------------------|--------------2-|-3---2-3---3-|
E|-------|-3--------------------3-|-2--------------|-------------|

'Cause he's definitely sure that it's true
G|-------------------------|-------------|-----------|
D|-------------------------|-------------|-----------|
A|-----0-----------------0-|-3---------3-|-----------|
E|-------------------------|-------------|-3---2-3-3-|

And what kind of man, kind of man are you?
G|-------------------------|-----------|-------------|
D|-------------------------|-----------|-------------|
A|-------------------------|---------2-|-3---2-3---3-|
E|--3--------------------3-|-2---------|-------------|

Showing love like you do, like you do
G|----------------|-----------|------------|
D|------2-------2-|-0-------0-|------------|
A|----------------|-----------|-3----2-3-3-|
E|----------------|-----------|------------|

[Instrumental]

G|-0---0-|-------|-------|-----|
D|-------|-2---2-|-0---0-|-----|
A|-------|-------|-------|-3---|
E|-------|-------|-------|-----|

[Chorus]

Oh, won't you let me finish
G|-------------------|-0---|-----|-----|
D|-------------------|-----|-2---|-----|
A|-------------------|-----|-----|-3---|
E|-------------------|-----|-----|-----|

You drive me insane
G|------------|-0---|-----|-----|
D|------------|-----|-2---|-----|
A|---3--------|-----|-----|-3---|
E|------------|-----|-----|-----|

The world will keep on turning
G|-------------------|-0---|-----|-----|
D|-------------------|-----|-2---|-----|
A|---3---------------|-----|-----|-3---|
E|-------------------|-----|-----|-----|

Even if we're not the same
G|-------------------|-------|
D|-------------------|-------|
A|---3---------------|-0---3-|
E|-------------------|-------|

Don't come on to me, come on to me
G|--------|-0------------|-0-------|
D|--------|--------------|---------|
A|--------|--------------|---------|
E|--------|--------------|---------|

[Bridge]

       So tell me what's on your mind, so tell me what's on your mind
G|-------|---------------------|--------------------------------|-----|
D|-------|---------------------|--------------------------------|-----|
A|-------|-------------------2-|-3-----2-3---------------3------|-0---|
E|-3---3-|-2-------------------|--------------------------------|-----|

  And don't forget  your   paracetamol smile
G|---|---------------|----------------|-----|
D|---|---------------|----------------|-----|
A|-0-|-3-----------3-|----------------|-----|
E|---|---------------|-3--2-3-3-------|-3---|

       So tell me what's on your mind, so tell me what's on your mind
G|-------|---------------------|--------------------------------|-----|
D|-------|---------------------|--------------------------------|-2---|
A|-------|-------------------2-|-3-----2-3---------------3------|-----|
E|-3---3-|-2-------------------|--------------------------------|-----|

  And don't forget  your   paracetamol smile
G|---|---------------|----------------|-----|
D|-2-|---------------|----------------|-----|
A|---|-3-----------3-|----------------|-----|
E|---|---------------|-3--2-3-3-------|-3---|

       So tell me what's on your mind, so tell me what's on your mind
G|-------|---------------------|-------------------------------------|
D|-------|---------------------|-------------------------------------|
A|-------|-------------------2-|-3-----2-3---------------3-----------|
E|-3---3-|-2-------------------|-------------------------------------|

Ooooh-ahhhh
G|---------|
D|---------|
A|---------|
E|---------|

[Outro]

You're emotionally challenged
G|---------------------------|-0---|-----|-----|
D|---------------------------|-----|-2---|-----|
A|---------------------------|-----|-----|-3---|
E|---------------------------|-----|-----|-----|

 Why do you waste your time?
G|--------------------|-0---|-----|-----|
D|--------------------|-----|-2---|-----|
A|---3----------------|-----|-----|-3---|
E|--------------------|-----|-----|-----|

 The world around you's manic
G|--------------------|-0---|-----|-----|
D|--------------------|-----|-2---|-----|
A|---3----------------|-----|-----|-3---|
E|--------------------|-----|-----|-----|

  Do you have no shame?
G|--------------|-------|
D|--------------|-------|
A|---3----------|-0---3-|
E|--------------|-------|

  Come on to me, come on to me
G|---|-0------------|-0-------|
D|---|--------------|---------|
A|---|--------------|---------|
E|---|--------------|---------|

            
            
Suggest correction
Creating personal tab
Creating personal tab
You can edit any tab online and save it as your Personal.

You can edit, replace or remove any tab part or add personal notes – all changes will be seen only by you.

Personal tabs can be accessed anytime from any device, even offline.
Learn more »
comments
print report bad tab
guest
You may want to rate the tab now too:
select rating
Wanna post a correction for this tab? Suggest correction