Oops, an error
Loading. Please wait.

The Kids Dont Wanna Come Home intro tab

version 1
version 1

Intro

991 views 36 this week
1 commentread comment
1 2 3 4 5
x 4
add to favorites
×
Save as Personal and add changes to this tab that will be seen only by you. Learn more ›
×
You can save this tab as Personal to edit and correct it or add notes. All changes will be seen only by you. Learn more »
launch autoscroll
font size
0
reset
how to read this tab
guitar tuner
edit
Autoscroll
slow
fast
+/-
esc
set tempo
stop
Author
Difficulty
I thought this would be nice for a loop kinda thing so there you go!
(It can be a bit tricky at first but you'll figure it out)
btw this is from the music video, so it's the longer intro.

[Intro]
e|-----------------|-----------------|
B|---7-8---0---8---|---7-8---0---8---|
G|-9-----7---7---7-|-9-----7---7---7-|
D|-----------------|-----------------|
A|-----------------|-----------------|
E|-----------------|-----------------|

e|-----------|-----------|
B|-------0-0-|-------0-0-|
G|-9-9-7-----|-9-9-7-----|
D|-----------|-----------|
A|-----------|-----------|
E|-----------|-----------|

G            C            G           C
I don't know what I want, if I'm completely honest
G               C            G                C
I guess I could start a war, I guess I could sleep on it...

e|---6-7-----------|---6-7-----------|
B|-8---------------|-8---------------|
G|-----------------|-----------------|
D|-----------------|-----------------|
A|-----------------|-----------------|
E|-----------------|-----------------|

            
            
Suggest correction
Creating personal tab
Creating personal tab
You can edit any tab online and save it as your Personal.

You can edit, replace or remove any tab part or add personal notes – all changes will be seen only by you.

Personal tabs can be accessed anytime from any device, even offline.
Learn more »
comments
print report bad tab
1 comment total.
0 reply
jefinegannn 10 Apr 15, 2017 03:31 PM

👍

guest
You may want to rate the tab now too:
select rating
Wanna post a correction for this tab? Suggest correction