Oops, an error
Loading. Please wait.

Fight Like This bass

version 1
version 1

Whole song

Interactive

1,870 views 1 this week
no commentswrite comment
1 2 3 4 5
1 last vote to show rating
add to favorites
×
Save as Personal and add changes to this tab that will be seen only by you. Learn more ›
×
You can save this tab as Personal to edit and correct it or add notes. All changes will be seen only by you. Learn more »
launch autoscroll
font size
0
reset
guitar tuner
edit
Autoscroll
slow
fast
+/-
esc
set tempo
stop
Decyfer Down               *UPDATED 6/23/2008 UPDATED*
Fight Like This
Tabbed by U B the band
Tuning Bb E A D G

Legend:
\-slide down                 p-pull off
/-slide up                   h-hammer on

Intro: 00:00
 G|--------------------------------------------------||
 D|--------------------------------------------------||
 A|--------------------------------------------------||
 E|--------------------------------------------------||play
Bb|----14-----14-------14-------\--------------------||
                                                      |2
 G|--------------------------------------------------||
 D|--------------------------------------------------||times
 A|--------------------------------------------------||
 E|--------------------------------------------------||
Bb|----12-----12-------12-------\--------------------||

Intro: 00:18
 G|---------------------------------------------------|
 D|---------------------------------------------------|
 A|---------------------------------------------------|
 E|---------------------------------------------------|
Bb|--3---0--2-p0--2-0-2--6--0--2-0-2--0--0--2---0--2--|x2

Verse: 00:36
 G|--------------------------------------------------||
 D|--------------------------------------------------||play
 A|--------------------------------------------------||4
 E|--------------------------------------------------||times
Bb|--0--0--2---0--0--2--2-2-2-2/3-3-3-3-3-3-3-3-3-3--||

Pre Chorus 1: 00:54
 G|---------------------------------------------------|
 D|---------------------------------------------------|
 A|---------------------------------------------------|
 E|---------------------------------------------------|
Bb|--3-------------------------0----------------------|

Chorus: 00:59
 G|--------------------------------------------------||
 D|--------------------------------------------------||
 A|--------------------------------------------------||
 E|--------------------------------------------------||play
Bb|--7--7--7--10--10--10--0--0--0-0-0-0-0-0-0-0------||
                                                      |4
 G|--------------------------------------------------||
 D|--------------------------------------------------||times
 A|--------------------------------------------------||
 E|--------------------------------------------------||
Bb|--7--7--7--12-12-12-10--10--10--10--10--5-5-5-5---||


From Chorus to Verse 2: 01:34
 G|---------------------------------------------------|
 D|---------------------------------------------------|
 A|---------------------------------------------------|
 E|---------------------------------------------------|
Bb|--3---0--2-p0--2-0-2--6--0--2-0-2--0--0--2---0--2--|x2

Verse 2 Bass 01:43
 G|--------------------------------------------------||
 D|--------------------------------------------------||play
 A|--------------------------------------------------||4
 E|--------------------------------------------------||times
Bb|--0--0--2---0--0--2--2-2-2-2/3-3-3-3-3-3-3-3-3-3--||

Pre chorus 2: 02:01/02:06
 G|--------------------------------------------------||
 D|--------------------------------------------------||play
 A|--------------------------------------------------||2
 E|--------------------------------------------------||times
Bb|---0--h2------0--h2---0--h3---0--h2-----0h2h3-----||

Chorus: 02:10
 G|--------------------------------------------------||
 D|--------------------------------------------------||
 A|--------------------------------------------------||
 E|--------------------------------------------------||play
Bb|--7--7--7--10--10--10--0-0-0-0-0-0-0-0-0-0--------||
                                                      |4
 G|--------------------------------------------------||
 D|--------------------------------------------------||times
 A|--------------------------------------------------||
 E|--------------------------------------------------||
Bb|--7--7--7--12-12-12--10--10--10--10--10--5-5-5-5--||

End of Chorus: 02:46
 G|---------------------------------------------------|
 D|---------------------------------------------------|
 A|---------------------------------------------------|
 E|---------------------------------------------------|
Bb|--3-------------------------0----------------------|

Bridge 03:08
 G|--------------------------------------------------||
 D|--------------------------------------------------||
 A|--------------------------------------------------||
 E|--------------------------------------------------||play
Bb|--8\--------0----2----0----2p0----2h3----2p0------||
                                                      |2
 G|--------------------------------------------------||
 D|--------------------------------------------------||times
 A|--------------------------------------------------||
 E|--------------------------------------------------||
Bb|--8\--------0----2------0---0------0------0-------||

Bridge Continued
 G|---------------------------------------------------|
 D|---------------------------------------------------|
 A|---------------------------------------------------|
 E|---------------------------------------------------|
Bb|--8\--------0----2----0----2p0----2h3----2p0-------|

Bridge Continued
 G|---------------------------------------------------|
 D|---------------------------------------------------|
 A|---------------------------------------------------|
 E|---------------------------------------------------|
Bb|--8\--------0----2---------------------------------|

Chorus: 03:27
 G|---------------------------------------------------|
 D|---------------------------------------------------|
 A|---------------------------------------------------|
 E|---------------------------------------------------|
Bb|--7--7--7--10--10--10--0-0-0-0-0-0-0-0-0-0---------|

 G|---------------------------------------------------|
 D|---------------------------------------------------|
 A|---------------------------------------------------|
 E|---------------------------------------------------|
Bb|--7--7--7--12-12-12-10--10--10--10--10-5-5-5-5-----|

Chorus 2: 03:36
 G|---------------------------------------------------|
 D|---------------------------------------------------|
 A|---------------------------------------------------|
 E|---------------------------------------------------|
Bb|--7--7--7--10--10--10---0-0-0-0-0-0-0-0-0-0--------|    

 G|---------------------------------------------------|
 D|---------------------------------------------------|
 A|---------------------------------------------------|
 E|---------------------------------------------------|
Bb|--7--7--7--12-12-12-10--10--10--10--10-14-14-14-14-|

Chorus 1: 03:45
 G|--------------------------------------------------||
 D|--------------------------------------------------||
 A|--------------------------------------------------||
 E|--------------------------------------------------||play
Bb|--7--7--7--10--10--10--0-0-0-0-0-0-0-0-0-0--------||
                                                      |2
 G|--------------------------------------------------||
 D|--------------------------------------------------||times
 A|--------------------------------------------------||
 E|--------------------------------------------------||
Bb|--7--7--7--12-12-12--10--10--10--10--10--5-5-5-5--||

Outro Bass: 04:02
 G|--------------------------------------------------||
 D|--------------------------------------------------||play
 A|--------------------------------------------------||4
 E|--------------------------------------------------||times
Bb|--3---0--2-p0--2-0-2--6--0--2-0-2--0--0--2---0--2-||

Finished!
Suggest correction
Creating personal tab
Creating personal tab
You can edit any tab online and save it as your Personal.

You can edit, replace or remove any tab part or add personal notes – all changes will be seen only by you.

Personal tabs can be accessed anytime from any device, even offline.
Learn more »
Give kudos to tab author, rate the tab!
1 2 3 4 5
comments
print report bad tab
guest
You may want to rate the tab now too:
select rating
Wanna post a correction for this tab? Suggest correction