Oops, an error
Loading. Please wait.

Anti-Everything tab

by Ded
553 views 24 this week
1 commentread comment
1 2 3 4 5
3 more votes to show rating
add to favorites
×
Save as Personal and add changes to this tab that will be seen only by you. Learn more ›
×
You can save this tab as Personal to edit and correct it or add notes. All changes will be seen only by you. Learn more »
launch autoscroll
font size
0
reset
how to read this tab
guitar tuner
edit
Autoscroll
slow
fast
+/-
esc
set tempo
stop
[Intro]
D|12-11-12-11-12-11-12-11------------------------|
A|------------------------13-12-13-12-13-12-13-12|
F|-----------------------------------------------|
C|-----------------------------------------------|
G|-----------------------------------------------|
C|-----------------------------------------------|

D|12-11-12-11-12-11-12-11------------------------|
A|------------------------13-12-13-12-13-12-13---|
F|-----------------------------------------------|
C|-----------------------------------------------|
G|-----------------------------------------------|
C|-----------------------------------------------|

D|--------------------------------------|
A|--------------------------------------|
F|3-3--3-3-3----------------------------|
C|3-3--3-3-3-1-2--1-2--1-2--1-1-2-1-2---|
G|1-1--1-1-1-1-2--1-2--1-2--1-1-2-1-2---|
C|-----------1-2--1-2--1-2--1-1-2-1-2---|
       * * *      * *       * * *
       
D|--------------------------------------|
A|--------------------------------------|
F|3-3--3-3-3----------------------------|
C|3-3--3-3-3-1-2--1-2--1-2--1-1-2-1-1---|
G|1-1--1-1-1-1-2--1-2--1-2--1-1-2-1-1---|
C|-----------1-2--1-2--1-2--1-1-2-1-1---|
       * * *      * *       * * * * *
       

[Verse 1]
(clean)
D|----14-14-|
A|----------|
F|----------|(x7)
C|----------|
G|----------|
C|----------|

[Chorus]
D|--------------------------------------------------------|    
A|--------------------------------------------------------|
F|7------14-----12-----10------14-----12-----10-----9-----|
C|-(x8)----(x8)---(x8)---(x16)---(x8)---(x8)---(x4)---(x3)|
G|5------12-----10-----8-------12-----10-----8------7-----|
C|--------------------------------------------------------|    
                
D|--------------------------------------|
A|--------------------------------------|
F|3-3--3-3-3----------------------------|
C|3-3--3-3-3-1-2--1-2--1-2--1-1-2-1-2---|
G|1-1--1-1-1-1-2--1-2--1-2--1-1-2-1-2---|
C|-----------1-2--1-2--1-2--1-1-2-1-2---|
       * * *      * *       * * *
       
D|--------------------------------------|
A|--------------------------------------|
F|3-3--3-3-3----------------------------|
C|3-3--3-3-3-1-2--1-2--1-2--1-1-2-1-1---|
G|1-1--1-1-1-1-2--1-2--1-2--1-1-2-1-1---|
C|-----------1-2--1-2--1-2--1-1-2-1-1---|
       * * *      * *       * * * * *
        
[Verse 2]
(clean)
D|----14-14-|
A|----------|
F|----------|(x3)
C|----------|
G|----------|
C|----------|

(distortion)
D|-----14-|
A|--------|
F|--------|(x4)
C|--------|
G|--------|
C|--------|


[Chorus]
D|--------------------------------------------------------|    
A|--------------------------------------------------------|
F|7------14-----12-----10------14-----12-----10-----9-----|
C|-(x8)----(x8)---(x8)---(x16)---(x8)---(x8)---(x4)---(x3)|
G|5------12-----10-----8-------12-----10-----8------7-----|
C|--------------------------------------------------------|     
              
D|--------------------------------------|
A|--------------------------------------|
F|3-3--3-3-3----------------------------|
C|3-3--3-3-3-1-2--1-2--1-2--1-1-2-1-2---|
G|1-1--1-1-1-1-2--1-2--1-2--1-1-2-1-2---|
C|-----------1-2--1-2--1-2--1-1-2-1-2---|
       * * *      * *       * * *
       
D|--------------------------------------|
A|--------------------------------------|
F|3-3--3-3-3----------------------------|
C|3-3--3-3-3-1-2--1-2--1-2--1-1-2-1-1---|
G|1-1--1-1-1-1-2--1-2--1-2--1-1-2-1-1---|
C|-----------1-2--1-2--1-2--1-1-2-1-1---|
       * * *      * *       * * * * *
        
[Bridge]
D|12-11-12-11-12-11-12-11------------------------|
A|------------------------13-12-13-12-13-12-13-12|
F|-----------------------------------------------|(x2)
C|-----------------------------------------------|
G|-----------------------------------------------|
C|-----------------------------------------------|

D|12-11-12-11-12-11-12-11------------------------|
A|------------------------13---------------------|
F|-----------------------------------------------|
C|-----------------------------------------------|
G|-----------------------------------------------|
C|-----------------------------------------------|

D|-----------------------|
A|-----------------------|
F|--------------------2-2|(x3)
C|1-2--1-2--1-2--1-2-----|
G|1-2--1-2--1-2--1-2-----|
C|1-2--1-2--1-2--1-2-----|

D|-----------------------|
A|-----------------------|
F|-----------------------|
C|1-2--1-2--1-2--1-1-----|
G|1-2--1-2--1-2--1-1-----|
C|1-2--1-2--1-2--1-1-----|
                 * *

D|-----------------------|
A|-----------------------|
F|--------------------2-2|(x3)
C|1-2--1-2--1-2--1-2-----|
G|1-2--1-2--1-2--1-2-----|
C|1-2--1-2--1-2--1-2-----|

D|-----------------------|
A|-----------------------|
F|-----------------------|
C|1-2--1-2--1-2--1-1-----|
G|1-2--1-2--1-2--1-1-----|
C|1-2--1-2--1-2--1-1-----|
                 * *
                   
[Chorus]
D|---------------------------|    
A|---------------------------|
F|7-----14-----12------------|
C|---------------------------|
G|5-----12-----10------------|
C|---------------------------|     

D|----------------------------------|    
A|----------------------------------|
F|7------14-----12-----10-----9-----|
C|-(x8)----(x8)---(x8)---(x4)---(x3)|
G|5------12-----10-----8------7-----|
C|----------------------------------|                  

D|--------------------------------------------------------|    
A|--------------------------------------------------------|
F|7------14-----12-----10------14-----12-----10-----9-----|
C|-(x8)----(x8)---(x8)---(x16)---(x8)---(x8)---(x4)---(x3)|
G|5------12-----10-----8-------12-----10-----8------7-----|
C|--------------------------------------------------------|  

D|--------------------------------------|
A|--------------------------------------|
F|3-3--3-3-3----------------------------|
C|3-3--3-3-3-1-2--1-2--1-2--1-1-2-1-2---|
G|1-1--1-1-1-1-2--1-2--1-2--1-1-2-1-2---|
C|-----------1-2--1-2--1-2--1-1-2-1-2---|
       * * *      * *       * * *
       
D|--------------------------------------|
A|--------------------------------------|
F|3-3--3-3-3----------------------------|
C|3-3--3-3-3-1-2--1-2--1-2--1-1-2-1-1---|
G|1-1--1-1-1-1-2--1-2--1-2--1-1-2-1-1---|
C|-----------1-2--1-2--1-2--1-1-2-1-1---|
       * * *      * *       * * * * *

D|---------------------------------------|
A|---------------------------------------|
F|3-3--3-3-3-----------------------------|
C|3-3--3-3-3-1-2--1-2--1-2--1-1-2-1-2--1-|
G|1-1--1-1-1-1-2--1-2--1-2--1-1-2-1-2--1-|
C|-----------1-2--1-2--1-2--1-1-2-1-2--1-|
       
D|--------------------------------------|
A|--------------------------------------|
F|3-3--3-3-3----------------------------|
C|3-3--3-3-3-1-2--1-2--1-2--1-1-2-1-1---|
G|1-1--1-1-1-1-2--1-2--1-2--1-1-2-1-1---|
C|-----------1-2--1-2--1-2--1-1-2-1-1---|
                                  * *


************************************

| *  Palm mute

************************************

            
            
Suggest correction
Creating personal tab
Creating personal tab
You can edit any tab online and save it as your Personal.

You can edit, replace or remove any tab part or add personal notes – all changes will be seen only by you.

Personal tabs can be accessed anytime from any device, even offline.
Learn more »
Give kudos to tab author, rate the tab!
1 2 3 4 5
comments
print report bad tab
1 comment total.
0 reply
chrchbrner 10 Jul 22, 2017 06:13 PM

Hey bud! This is sweet! However, I believe they play in dropped A# or A. I could be wrong though!

guest
You may want to rate the tab now too:
select rating
Wanna post a correction for this tab? Suggest correction