Oops, an error
Loading. Please wait.

Shakin All Over Bass Tab

3,907 views 1 this week
1 commentread comment
1 2 3 4 5
1 last vote to show rating
add to favorites
launch autoscroll
font size
0
reset
guitar tuner
Autoscroll
slow
fast
+/-
esc
set tempo
stop
Help us to improve Ultimate-Guitar.com Take our survey!
×
Dee Dee Ramone
Shakin' All Over
Greatest and Latest

G---------------------|
D------5-5--3-3-------|
A----------------5-5--|
E-3-3-----------------|


G---------------------|
D------5-5--3-3-------|
A----------------5-5--|
E-3-3-----------------|


G---------------------|
D------5-5--3-3-------|
A----------------5-5--|
E-3-3-----------------|
Suggest correction
Give kudos to tab author, rate the tab!
1 2 3 4 5
comments
print report bad tab
1 comment total.
0 reply
Andsome 82 Apr 15, 2012 11:40 AM

This is a semi-tone out. The record is in F#, not G.

This is also missing the chorus of F# and B.

guest
You may want to rate the tab now too:
select rating
Wanna post a correction for this tab? Suggest correction