Oops, an error
Loading. Please wait.

Infested Beneath The Earth tab

675 views 1 this week
no commentswrite comment
1 2 3 4 5
1 last vote to show rating
add to favorites
×
Save as Personal and add changes to this tab that will be seen only by you. Learn more ›
×
You can save this tab as Personal to edit and correct it or add notes. All changes will be seen only by you. Learn more »
launch autoscroll
font size
0
reset
how to read this tab
guitar tuner
edit
Autoscroll
slow
fast
+/-
esc
set tempo
stop
This is the first tab I've ever submitted, I'm not sure if it's completely correct, but 
sounds right to me.
This song is tuned with every string one step down (from low to high: D, G, C, F, A, D)

Gtr I (D G C F A D) - 'Untitled'
Gtr II (D G C F A D) - 'Untitled'


Tablature Legend
----------------
 h   - hammer-on
 p   - pull-off
 b   - bend
 pb  - pre-bend
 r   - bend release (if no number after the r, then release immediately)
 /\  - slide into or out of (from/to "nowhere")
 s   - legato slide
 S   - shift slide
  - natural harmonic
[n]  - artificial harmonic
n(n) - tapped harmonic
 ~   - vibrato
 tr  - trill
 T   - tap
 TP  - trem. picking
 PM  - palm muting
\n/  - tremolo bar dip; n = amount to dip
 \n  - tremolo bar down
 n/  - tremolo bar up
/n\  - tremolo bar inverted dip
 =   - hold bend; also acts as connecting device for hammers/pulls
 <>  - volume swell (louder/softer)
 x   - on rhythm slash represents muted slash
 o   - on rhythm slash represents single note slash

Misc Legend
-----------
 |  - bar
||  - double bar
||o - repeat start
o|| - repeat end
*|  - double bar (ending)
 :  - bar (freetime)
 $  - Segno
 &  - Coda
Tempo markers -  = BPM(8/16=s8/s16), where s8 = swing 8ths, s16 = swing 16ths

  Q=144
 4/4
  Gtr I
  |--3--| |-3-| |-3-| |-3-|   |-3-| |-3-| |-3-| |3|
  E S S E E E E E E E E E E   E E E E E E E E E E E
|---------------------------|------------------------|
|---------------------------|------------------------|
|---------------------------|------------------------|
|---------7-------------7-7-|------------------------|
|---7-7-8---7-8---7-8-5-----|-4-6-6------------------|
|-5-------------5-----------|-------4-7-7-2-5-1-3-4--|
|
| Gtr II
| |--3--| |-3-| |-3-| |-3-|   |-3-| |-3-| |-3-| |3|
| E S S E E E E E E E E E E   E E E E E E E E E E E
|---------------------------|------------------------|
|---------------------------|------------------------|
|---------------------------|------------------------|
|---------7-------------7-7-|------------------------|
|---7-7-8---7-8---7-8-5-----|-4-6-6------------------|
|-5-------------5-----------|-------4-7-7-2-5-1-3-4--|


   15/8
    |-3-| |-3-| |-3-| |-3-| |-3-| |-3-| |-3-| |3|
    E E E E E E E E E E E E E E E E E E E E E E E  3x
||-------------------------------------------------||----|
||o-----------------------------------------------o||----|
||-------------------------------------------------||----|
||----------------------7-7------------------------||----|
||o---7-8---7-8---7-8-5-----4-6-6-----------------o||----|
||--5-----5-----5-----------------4-7-7-2-5-1-3-4--||----|
|
|   |-3-| |-3-| |-3-| |-3-| |-3-| |-3-| |-3-| |3|
|   E E E E E E E E E E E E E E E E E E E E E E E  3x
||-------------------------------------------------||----|
||o-----------------------------------------------o||----|
||-------------------------------------------------||----|
||----------------------7-7------------------------||----|
||o---7-8---7-8---7-8-5-----4-6-6-----------------o||----|
||--5-----5-----5-----------------4-7-7-2-5-1-3-4--||----|


    $
   4/4
    TP TP TP          TP TPTPTPTP  TP TP TP          TP TPTPTPTP
    Q  Q  Q  E E   Q  Q  E E E E   Q  Q  Q  E E   Q  Q  E E E E
||---------------|---------------|--------------|----------------||
||o--------------|---------------|--------------|---------------o||
||---------------|---------------|--------------|----------------||
||---------------|-5-------------|--------------|-4--------------||
||o-4-----4--2-4-|-5-----5-4-----|-3-----3--1-3-|-4-----4-3-----o||
||-----2-----2-4-|----2------3-2-|----1-----1-3-|----1------1-2--||
|
|   TP TP TP          TP TPTPTPTP  TP TP TP          TP TPTPTPTP
|   Q  Q  Q  E E   Q  Q  E E E E   Q  Q  Q  E E   Q  Q  E E E E
||---------------|---------------|--------------|----------------||
||o--------------|---------------|--------------|---------------o||
||---------------|---------------|--------------|----------------||
||---------------|-5-------------|--------------|-4--------------||
||o-4-----4--2-4-|-5-----5-4-----|-3-----3--1-3-|-4-----4-3-----o||
||-----2-----2-4-|----2------3-2-|----1-----1-3-|----1------1-2--||


             4/4
  TPTPTPTP                                TPTPTPTPTPTPTPTP
              |-3-| |-3-| |-3-| |-3-|
  E E E E     E E E E E E E E E E E E     E E E E E E E E
|---------||---------------------------||-----------------|
|---------||o-------------------------o||-----------------|
|---------||---------------------------||-----------------|
|---------||--------3-5-6-3-5-5--------||-----------------|
|-4-3-----||o-2-4-5-------------2-4-5-o||-4-3-----4-3-----|
|-----1-2-||---------------------------||-----1-2-----1-2-|
|
| TPTPTPTP                                TPTPTPTPTPTPTPTP
|             |-3-| |-3-| |-3-| |-3-|
| E E E E     E E E E E E E E E E E E     E E E E E E E E
|---------||---------------------------||-----------------|
|---------||o-------------------------o||-----------------|
|---------||---------------------------||-----------------|
|---------||--------3-5-6-3-5-5--------||-----------------|
|-4-3-----||o-2-4-5-------------2-4-5-o||-4-3-----4-3-----|
|-----1-2-||---------------------------||-----1-2-----1-2-|


                                                                            D.S.
                                TPTPTPTPTPTPTPTP
    |-3-| |-3-| |-3-| |-3-|                         |-3-| |-3-| |-3-| |-3-|
    E E E E E E E E E E E E     E E E E E E E E     E E E E E E E E E E E E
||---------------------------||-----------------||---------------------------||--|
||o-------------------------o||-----------------||o-------------------------o||--|
||---------------------------||-----------------||---------------------------||--|
||--------3-5-6-3-5-5--------||-----------------||--------3-5-6-3-5-5--------||--|
||o-2-4-5-------------2-4-5-o||-4-3-----4-3-----||o-2-4-5-------------2-4-5-o||--|
||---------------------------||-----1-2-----1-2-||---------------------------||--|
|
|                               TPTPTPTPTPTPTPTP
|   |-3-| |-3-| |-3-| |-3-|                         |-3-| |-3-| |-3-| |-3-|
|   E E E E E E E E E E E E     E E E E E E E E     E E E E E E E E E E E E
||---------------------------||-----------------||---------------------------||--|
||o-------------------------o||-----------------||o-------------------------o||--|
||---------------------------||-----------------||---------------------------||--|
||--------3-5-6-3-5-5--------||-----------------||--------3-5-6-3-5-5--------||--|
||o-2-4-5-------------2-4-5-o||-4-3-----4-3-----||o-2-4-5-------------2-4-5-o||--|
||---------------------------||-----1-2-----1-2-||---------------------------||--|


  Q=147                           Q=147
 3/4           4/4               3/4
  TPTPTPTPTPTP  TPTPTPTPTPTPTPTP
  E E E E E E   E E E E E E E E   e S S e e S S e   e S S e e S S e
|-------------|-----------------|-----------------|------------------|
|-------------|-----------------|-----------------|------------------|
|-------------|-----------------|-----------------|------------------|
|-------------|-----------------|---6-6-5---6-6-5-|---5-5-4---5-5-4--|
|-4-----------|---4-------------|-----------------|------------------|
|---2-4-5-4-2-|-1---2-4-5-4-2-1-|-7-------7-------|-7-------7--------|
|
| TPTPTPTPTPTP  TPTPTPTPTPTPTPTP
| E E E E E E   E E E E E E E E   e S S e e S S e   e S S e e S S e
|-------------|-----------------|-----------------|------------------|
|-------------|-----------------|-----------------|------------------|
|-------------|-----------------|-----------------|------------------|
|-------------|-----------------|---6-6-5---6-6-5-|---5-5-4---5-5-4--|
|-4-----------|---4-------------|-----------------|------------------|
|---2-4-5-4-2-|-1---2-4-5-4-2-1-|-7-------7-------|-7-------7--------|


  Q=130
 4/4
  TPTPTPTPTPTPTPTP  TPTPTPTPTPTPTPTP
  E E E E E E E E   E E E E E E E E     Q.    E E E Q.     Q.   H    E
|-----------------|-----------------||-------------------|-------------|
|-----------------|-----------------||o------------------|-------------|
|-----------------|-----------------||-------------------|-------------|
|-----------------|-----------------||-------------------|-------------|
|-3---------------|-----------------||o-2-----------6----|-6----1------|
|---2-4-3-5-4-3-4-|-3-2-5-4-3-4-3-2-||--3-----3-8-7-7----|-7----2----2-|
|
| TPTPTPTPTPTPTPTP  TPTPTPTPTPTPTPTP
| E E E E E E E E   E E E E E E E E     Q.    E E E Q.     Q.   H    E
|-----------------|-----------------||-------------------|-------------|
|-----------------|-----------------||o------------------|-------------|
|-----------------|-----------------||-------------------|-------------|
|-----------------|-----------------||-------------------|-------------|
|-3---------------|-----------------||o-2-----------6----|-6----1------|
|---2-4-3-5-4-3-4-|-3-2-5-4-3-4-3-2-||--3-----3-8-7-7----|-7----2----2-|


                  TP   TP   TP        TP   TP   TP   TP
  E E Q.   Q.     H    Q    H.        H    Q    H    Q
|---------------|---------|---------|---------|----------||---|
|---------------|---------|---------|---------|---------o||---|
|---------------|---------|---------|---------|----------||---|
|---------------|------2--|-1-------|---------|----------||---|
|-----4----3----|-2----3--|-2-------|-1----5--|-4----3--o||---|
|-7-5-5----4----|-3-------|---------|-2----6--|-5----4---||---|
|
|                 TP   TP   TP        TP   TP   TP   TP
| E E Q.   Q.     H    Q    H.        H    Q    H    Q
|---------------|---------|---------|---------|----------||---|
|---------------|---------|---------|---------|---------o||---|
|---------------|---------|---------|---------|----------||---|
|---------------|------2--|-1-------|---------|----------||---|
|-----4----3----|-2----3--|-2-------|-1----5--|-4----3--o||---|
|-7-5-5----4----|-3-------|---------|-2----6--|-5----4---||---|


    Q=144                                                 1.
    E E E E E E E E   E E E E E E E E   E E E E E E E E   E Q.   E Q.
||------------------|-----------------|-----------------|-----------------||
||o-----------------|-----------------|-----------------|----------------o||
||------------------|-----------------|-----------------|-----------------||
||------------------|-----------------|-----------------|---4------3------||
||o-2-3-4-3-4-3-2-3-|-2-3-4-3-5-4-3-4-|-2-3-4-3-4-3-2-3-|---4------3-----o||
||--0-1-2-1-2-1-0-1-|-0-1-2-1-3-2-1-2-|-0-1-2-1-2-1-0-1-|-0-2----0-1------||
|
|   E E E E E E E E   E E E E E E E E   E E E E E E E E   E Q.   E Q.
||------------------|-----------------|-----------------|-----------------||
||o-----------------|-----------------|-----------------|----------------o||
||------------------|-----------------|-----------------|-----------------||
||------------------|-----------------|-----------------|---4------3------||
||o-2-3-4-3-4-3-2-3-|-2-3-4-3-5-4-3-4-|-2-3-4-3-4-3-2-3-|---4------3-----o||
||--0-1-2-1-2-1-0-1-|-0-1-2-1-3-2-1-2-|-0-1-2-1-2-1-0-1-|-0-2----0-1------||


  2.
  E E E E E E E E   E Q.   E E E Q.
|-----------------|-------------------|----|
|-----------------|-------------------|----|
|-----------------|---3---------------|----|
|-----------------|---3----------3----|----|
|-5-4-3-4-3-2-3-2-|---1----5-4---3----|----|
|-5-4-3-4-3-2-3-2-|-0------3-2-0-1----|----|
|
| E E E E E E E E   E Q.   E E E Q.
|-----------------|-------------------|----|
|-----------------|-------------------|----|
|-----------------|---3---------------|----|
|-----------------|---3----------3----|----|
|-5-4-3-4-3-2-3-2-|---1----5-4---3----|----|
|-5-4-3-4-3-2-3-2-|-0------3-2-0-1----|----|


  Q=147                           Q=147
 3/4           4/4               3/4
  TPTPTPTPTPTP  TPTPTPTPTPTPTPTP
  E E E E E E   E E E E E E E E   e S S e e S S e   e S S e e S S e
|-------------|-----------------|-----------------|------------------|
|-------------|-----------------|-----------------|------------------|
|-------------|-----------------|-----------------|------------------|
|-------------|-----------------|---6-6-5---6-6-5-|---5-5-4---5-5-4--|
|-4-----------|---4-------------|-----------------|------------------|
|---2-4-5-4-2-|-1---2-4-5-4-2-1-|-7-------7-------|-7-------7--------|
|
| TPTPTPTPTPTP  TPTPTPTPTPTPTPTP
| E E E E E E   E E E E E E E E   e S S e e S S e   e S S e e S S e
|-------------|-----------------|-----------------|------------------|
|-------------|-----------------|-----------------|------------------|
|-------------|-----------------|-----------------|------------------|
|-------------|-----------------|---6-6-5---6-6-5-|---5-5-4---5-5-4--|
|-4-----------|---4-------------|-----------------|------------------|
|---2-4-5-4-2-|-1---2-4-5-4-2-1-|-7-------7-------|-7-------7--------|


  Q=130
 4/4
  TPTPTPTPTPTPTPTP  TPTPTPTPTPTPTPTP
  E E E E E E E E   E E E E E E E E     Q.    E E E Q.     Q.   H    E
|-----------------|-----------------||-------------------|-------------|
|-----------------|-----------------||o------------------|-------------|
|-----------------|-----------------||-------------------|-------------|
|-----------------|-----------------||-------------------|-------------|
|-3---------------|-----------------||o-2-----------6----|-6----1------|
|---2-4-3-5-4-3-4-|-3-2-5-4-3-4-3-2-||--3-----3-8-7-7----|-7----2----2-|
|
| TPTPTPTPTPTPTPTP  TPTPTPTPTPTPTPTP
| E E E E E E E E   E E E E E E E E     Q.    E E E Q.     Q.   H    E
|-----------------|-----------------||-------------------|-------------|
|-----------------|-----------------||o------------------|-------------|
|-----------------|-----------------||-------------------|-------------|
|-----------------|-----------------||-------------------|-------------|
|-3---------------|-----------------||o-2-----------6----|-6----1------|
|---2-4-3-5-4-3-4-|-3-2-5-4-3-4-3-2-||--3-----3-8-7-7----|-7----2----2-|


                  TP   TP   TP        TP   TP   TP   TP
  E E Q.   Q.     H    Q    H.        H    Q    H    Q
|---------------|---------|---------|---------|----------||---|
|---------------|---------|---------|---------|---------o||---|
|---------------|---------|---------|---------|----------||---|
|---------------|------2--|-1-------|---------|----------||---|
|-----4----3----|-2----3--|-2-------|-1----5--|-4----3--o||---|
|-7-5-5----4----|-3-------|---------|-2----6--|-5----4---||---|
|
|                 TP   TP   TP        TP   TP   TP   TP
| E E Q.   Q.     H    Q    H.        H    Q    H    Q
|---------------|---------|---------|---------|----------||---|
|---------------|---------|---------|---------|---------o||---|
|---------------|---------|---------|---------|----------||---|
|---------------|------2--|-1-------|---------|----------||---|
|-----4----3----|-2----3--|-2-------|-1----5--|-4----3--o||---|
|-7-5-5----4----|-3-------|---------|-2----6--|-5----4---||---|


    TPTPTPTPTPTP  TPTPTPTPTPTP        TP
    E E E E E E   E E E E E E         Q.   E E E
||--------------|--------------||-||-------------|
||o-------------|-------------o||-||o------------|
||--------------|--------------||-||-------------|
||--------------|--------------||-||-------------|
||o-----6-5-1-3-|-----6-5-1---o||-||o------3-3-3-|
||--3-6---------|-3-6-------2--||-||--4----1-1-1-|
|
|   TPTPTPTPTPTP  TPTPTPTPTPTP        TP
|   E E E E E E   E E E E E E         Q.   E E E
||--------------|--------------||-||-------------|
||o-------------|-------------o||-||o------------|
||--------------|--------------||-||-------------|
||--------------|--------------||-||-------------|
||o-----6-5-1-3-|-----6-5-1---o||-||o------3-3-3-|
||--3-6---------|-3-6-------2--||-||--1----1-1-1-|


  TP   TPTPTP  TP             TPTPTP
  Q.   E E E   Q.   E E E   E E E Q.
|------------|------------|-----------||---|
|------------|------------|----------o||---|
|------------|------------|-----------||---|
|------------|------------|-----------||---|
|------------|------3-3-3-|-5--------o||---|
|-4----2-3-2-|-4----1-1-1-|---4-1-4---||---|
|
| TP   TPTPTP  TP             TPTPTP
| Q.   E E E   Q.   E E E   E E E Q.
|------------|------------|-----------||---|
|------------|------------|----------o||---|
|------------|------------|-----------||---|
|------------|------------|-----------||---|
|------------|------3-3-3-|-5--------o||---|
|-1----2-3-2-|-4----1-1-1-|---4-1-4---||---|


                                            3/4
              TP                             TPTPTPTP
  E E S S S S Q.   E   S S S S E E E E E E   E E E Q.
|--------------------|---------------------|------------|
|--------------------|---------------------|------------|
|--------------------|---------------------|------------|
|--------------------|---------------------|------------|
|---5--------------5-|---------1-1-1-------|-5----------|
|-4---4-4-1-1-3------|-4-4-1-1-2-2-2-2-2-2-|---4-1-4----|
|
|             TP                             TPTPTPTP
| E E S S S S Q.   E   S S S S E E E E E E   E E E Q.
|--------------------|---------------------|------------|
|--------------------|---------------------|------------|
|--------------------|---------------------|------------|
|--------------------|---------------------|------------|
|---5--------------5-|---------1-1-1-------|-5----------|
|-4---4-4-1-1-3------|-4-4-1-1-2-2-2-2-2-2-|---4-1-4----|


  TP           TP   TPTPTP  TP             TPTPTP
  Q.   E E E   Q.   E E E   Q.   E E E   E E E Q.
|------------|------------|------------|-------------|
|------------|------------|------------|-------------|
|------------|------------|------------|-------------|
|------------|------------|------------|-------------|
|------3-3-3-|------------|------3-3-3-|-5-----------|
|-4----1-1-1-|-4----2-3-2-|-4----1-1-1-|---4-1-4-----|
|
| TP           TP   TPTPTP  TP             TPTPTP
| Q.   E E E   Q.   E E E   Q.   E E E   E E E Q.
|------------|------------|------------|-------------|
|------------|------------|------------|-------------|
|------------|------------|------------|-------------|
|------------|------------|------------|-------------|
|------3-3-3-|------------|------3-3-3-|-5-----------|
|-1----1-1-1-|-1----2-3-2-|-4----1-1-1-|---4-1-4-----|


                                  Q=147
    TPTPTPTPTPTP  TPTPTPTPTPTP    TPTPTPTPTPTP
    E E E E E E   E E E E E E     E E E E E E
||--------------|--------------||-------------|
||o-------------|-------------o||-------------|
||--------------|--------------||-------------|
||--------------|--------------||-------------|
||o-----6-5-1-3-|-----6-5-1---o||-4-----------|
||--3-6---------|-3-6-------2--||---2-4-5-4-2-|
|
|   TPTPTPTPTPTP  TPTPTPTPTPTP    TPTPTPTPTPTP
|   E E E E E E   E E E E E E     E E E E E E
||--------------|--------------||-------------|
||o-------------|-------------o||-------------|
||--------------|--------------||-------------|
||--------------|--------------||-------------|
||o-----6-5-1-3-|-----6-5-1---o||-4-----------|
||--3-6---------|-3-6-------2--||---2-4-5-4-2-|


  TPTPTPTPTPTP  TPTP
  E E E E E E   E E e S S e e   S S e e S S e e   S S e
|-------------|---------------|-----------------|---------|
|-------------|---------------|-----------------|---------|
|-------------|---------------|-----------------|---------|
|-------------|-------6-6-5---|-6-6-5---5-5-4---|-5-5-4---|
|---4---------|---------------|-----------------|---------|
|-1---2-4-5-4-|-2-1-7-------7-|-------7-------7-|---------|
|
| TPTPTPTPTPTP  TPTP
| E E E E E E   E E e S S e e   S S e e S S e e   S S e
|-------------|---------------|-----------------|---------|
|-------------|---------------|-----------------|---------|
|-------------|---------------|-----------------|---------|
|-------------|-------6-6-5---|-6-6-5---5-5-4---|-5-5-4---|
|---4---------|---------------|-----------------|---------|
|-1---2-4-5-4-|-2-1-7-------7-|-------7-------7-|---------|


  Q=130
 4/4
  TPTPTPTPTPTPTPTP  TPTPTPTPTPTPTPTP
  E E E E E E E E   E E E E E E E E     Q.    E E E Q.     Q.   H    E
|-----------------|-----------------||-------------------|-------------|
|-----------------|-----------------||o------------------|-------------|
|-----------------|-----------------||-------------------|-------------|
|-----------------|-----------------||-------------------|-------------|
|-3---------------|-----------------||o-2-----------6----|-6----1------|
|---2-4-3-5-4-3-4-|-3-2-5-4-3-4-3-2-||--3-----3-8-7-7----|-7----2----2-|
|
| TPTPTPTPTPTPTPTP  TPTPTPTPTPTPTPTP
| E E E E E E E E   E E E E E E E E     Q.    E E E Q.     Q.   H    E
|-----------------|-----------------||-------------------|-------------|
|-----------------|-----------------||o------------------|-------------|
|-----------------|-----------------||-------------------|-------------|
|-----------------|-----------------||-------------------|-------------|
|-3---------------|-----------------||o-2-----------6----|-6----1------|
|---2-4-3-5-4-3-4-|-3-2-5-4-3-4-3-2-||--3-----3-8-7-7----|-7----2----2-|


                  TP   TP   TP        TP   TP   TP   TP
  E E Q.   Q.     H    Q    H.        H    Q    H    Q
|---------------|---------|---------|---------|----------||---|
|---------------|---------|---------|---------|---------o||---|
|---------------|---------|---------|---------|----------||---|
|---------------|------2--|-1-------|---------|----------||---|
|-----4----3----|-2----3--|-2-------|-1----5--|-4----3--o||---|
|-7-5-5----4----|-3-------|---------|-2----6--|-5----4---||---|
|
|                 TP   TP   TP        TP   TP   TP   TP
| E E Q.   Q.     H    Q    H.        H    Q    H    Q
|---------------|---------|---------|---------|----------||---|
|---------------|---------|---------|---------|---------o||---|
|---------------|---------|---------|---------|----------||---|
|---------------|------2--|-1-------|---------|----------||---|
|-----4----3----|-2----3--|-2-------|-1----5--|-4----3--o||---|
|-7-5-5----4----|-3-------|---------|-2----6--|-5----4---||---|


    Q=144                                                 1.
    E E E E E E E E   E E E E E E E E   E E E E E E E E   E Q.   E Q.
||------------------|-----------------|-----------------|-----------------||
||o-----------------|-----------------|-----------------|----------------o||
||------------------|-----------------|-----------------|-----------------||
||------------------|-----------------|-----------------|---4------3------||
||o-2-3-4-3-4-3-2-3-|-2-3-4-3-5-4-3-4-|-2-3-4-3-4-3-2-3-|---4------3-----o||
||--0-1-2-1-2-1-0-1-|-0-1-2-1-3-2-1-2-|-0-1-2-1-2-1-0-1-|-0-2----0-1------||
|
|   E E E E E E E E   E E E E E E E E   E E E E E E E E   E Q.   E Q.
||------------------|-----------------|-----------------|-----------------||
||o-----------------|-----------------|-----------------|----------------o||
||------------------|-----------------|-----------------|-----------------||
||------------------|-----------------|-----------------|---4------3------||
||o-2-3-4-3-4-3-2-3-|-2-3-4-3-5-4-3-4-|-2-3-4-3-4-3-2-3-|---4------3-----o||
||--0-1-2-1-2-1-0-1-|-0-1-2-1-3-2-1-2-|-0-1-2-1-2-1-0-1-|-0-2----0-1------||


  2.
  E E E E E E E E   E Q.   E E E Q.     E E E E E E E E
|-----------------|-------------------|-----------------|
|-----------------|-------------------|-----------------|
|-----------------|---3---------------|-----------------|
|-----------------|---3----------3----|-----------------|
|-5-4-3-4-3-2-3-2-|---1----5-4---3----|-2-3-4-3-4-3-2-3-|
|-5-4-3-4-3-2-3-2-|-0------3-2-0-1----|-0-1-2-1-2-1-0-1-|
|
| E E E E E E E E   E Q.   E E E Q.     E E E E E E E E
|-----------------|-------------------|-----------------|
|-----------------|-------------------|-----------------|
|-----------------|---3---------------|-----------------|
|-----------------|---3----------3----|-----------------|
|-5-4-3-4-3-2-3-2-|---1----5-4---3----|-2-3-4-3-4-3-2-3-|
|-5-4-3-4-3-2-3-2-|-0------3-2-0-1----|-0-1-2-1-2-1-0-1-|


  E E E E E E E E   E E E E E E E E   E Q.   E Q.
|-----------------|-----------------|----------------|
|-----------------|-----------------|----------------|
|-----------------|-----------------|----------------|
|-----------------|-----------------|---4------3-----|
|-2-3-4-3-5-4-3-4-|-2-3-4-3-4-3-2-3-|---4------3-----|
|-0-1-2-1-3-2-1-2-|-0-1-2-1-2-1-0-1-|-0-2----0-1-----|
|
| E E E E E E E E   E E E E E E E E   E Q.   E Q.
|-----------------|-----------------|----------------|
|-----------------|-----------------|----------------|
|-----------------|-----------------|----------------|
|-----------------|-----------------|---4------3-----|
|-2-3-4-3-5-4-3-4-|-2-3-4-3-4-3-2-3-|---4------3-----|
|-0-1-2-1-3-2-1-2-|-0-1-2-1-2-1-0-1-|-0-2----0-1-----|


   15/8
    |-3-| |-3-| |-3-| |-3-| |-3-| |-3-| |-3-| |3|
    E E E E E E E E E E E E E E E E E E E E E E E  4x
||-------------------------------------------------||----|
||o-----------------------------------------------o||----|
||-------------------------------------------------||----|
||----------------------7-7------------------------||----|
||o---7-8---7-8---7-8-5-----4-6-6-----------------o||----|
||--5-----5-----5-----------------4-7-7-2-5-1-3-4--||----|
|
|   |-3-| |-3-| |-3-| |-3-| |-3-| |-3-| |-3-| |3|
|   E E E E E E E E E E E E E E E E E E E E E E E  4x
||-------------------------------------------------||----|
||o-----------------------------------------------o||----|
||-------------------------------------------------||----|
||----------------------7-7------------------------||----|
||o---7-8---7-8---7-8-5-----4-6-6-----------------o||----|
||--5-----5-----5-----------------4-7-7-2-5-1-3-4--||----|

            
            
Suggest correction
Creating personal tab
Creating personal tab
You can edit any tab online and save it as your Personal.

You can edit, replace or remove any tab part or add personal notes – all changes will be seen only by you.

Personal tabs can be accessed anytime from any device, even offline.
Learn more »
Give kudos to tab author, rate the tab!
1 2 3 4 5
comments
print report bad tab
guest
You may want to rate the tab now too:
select rating
Wanna post a correction for this tab? Suggest correction