Oops, an error
Loading. Please wait.

Breakfast At Tiffanys Bass Tab

version 1
version 1

Whole song

Interactive

3,116 views 12 this week
3 commentsread comments
1 2 3 4 5
x 5
add to favorites
launch autoscroll
font size
0
reset
guitar tuner
Autoscroll
slow
fast
+/-
esc
set tempo
stop
Help us to improve Ultimate-Guitar.com Take our survey!
×
Difficulty
novice
Intro:                     
G|----------7-----7-7----------------------------------|
D|----------------------5----7-------------------------|
A|-----------------------------------------------------| x4
E|-----------------------------------------------------|

Chorus:     
G|----------7-77--7-77--7-77------------------------------|
D|----------------------------5-55-5-55---7-77-7-77-------|
A|--------------------------------------------------------| x4
E|--------------------------------------------------------|

Solo/Bridge: 
G|----------7-77--7-77--7-77------------------------------|
D|-----------------------------5-55-5-55---7-77-7-77------|
A|--------------------------------------------------------| x2
E|--------------------------------------------------------|

Verse:      
G|----------7-77--7-77--7-77------------------------------|
D|----------------------------7-77-7-77----5-55-5-55------|
A|--------------------------------------------------------| x8
E|--------------------------------------------------------|
Suggest correction
comments
print report bad tab
3 comments total.
0 reply
BassinSenses 10 Aug 29, 2014 02:38 PM

Tab incomplete. Clearly wrong.

0 reply
klidforn 10 Oct 18, 2014 03:27 PM

Extremely helpful BassinSenses. Thanks for everything

0 reply
jwryder861 10 Jun 15, 2016 03:47 PM

totally wrong!!?? how could you even put that up, really poor must try harder there's clearly a lot more going on than this

guest
You may want to rate the tab now too:
select rating
Wanna post a correction for this tab? Suggest correction