Oops, an error
Loading. Please wait.
We have Chord Pro version of Breakfast At Tiffanys.
It's the closest thing you can get to the original song and it has interactive parts. Check out the tab »
×

Breakfast At Tiffanys tab

version 4
version 4

Whole song

Interactive

Video

70 views 1 this week
no commentswrite comment
1 2 3 4 5
2 more votes to show rating
add to favorites
×
Save as Personal and add changes to this tab that will be seen only by you. Learn more ›
×
You can save this tab as Personal to edit and correct it or add notes. All changes will be seen only by you. Learn more »
launch autoscroll
font size
0
reset
how to read this tab
guitar tuner
backing track
0:00
0:00
edit
Autoscroll
slow
fast
+/-
esc
set tempo
stop
Author
Difficulty
About this tab version
This is an exact representation of the acoustic and electric parts of the song. Note that all verses but the first have an electric in the background picking around the verse chords. Was this info helpful? Yes No
[Acoustic Verse Riff]
    D                        G/B    A
e|--2-2--2-0--2-2-3—-3p2-0---3-3-3---0-0-0--------------------------------------|
B|--3-3--3-3--3-3-3--3---3---3-3-3---2-2-2--------------------------------------|
G|--2-2--2-2--2-2-2--2---2---0-0-0---2-2-2--------------------------------------|
D|--0-0--0-0--0-0-0--0---0---0-0-0---2-2-2--------------------------------------|
A|--0-0--0-0--0-0-0--0---0---2-2-2---0-0-0--------------------------------------|
E|-----------------------------------0-0-0--------------------------------------|

[Verse]
[Acoustic Verse Riff]
       D    G/B       A          D          G/B    A         D
You'll say, we've got nothing in common, no common ground to start from
    G/B      A     D     G/B     A
and we're falling apart
       D        G/B       A      D             G/B        A      D
You'll say, the world has come between us, our lives have come between us
      G/B    A              D     G/B     A
still I know you just don't care

[Electric Chorus Chords] 
(with Medium Distortion)
    D            A        G/B
e|------------------------------------------------------------------------------|
B|------------------------------------------------------------------------------|
G|--7--7--7--7------------------------------------------------------------------|
D|--7--7--7--7---7---7----5---5-------------------------------------------------|
A|--5--5--5--5---7---7----5---5-------------------------------------------------|
E|--5--5--5--5---5---5----7---7-------------------------------------------------|

[Chorus]
[Electric Chorus Chords]
     D                A            G/B            D                A
And I said what about Breakfast at Tiffany's, she said I think I remember 
    G/B         D                   A            G/B           D        
the film and as I recall I think we both kind of liked it, and I said well that's
    A               G/B 
the one thing we've got

[Fill 1]
(Clean with Heavy Delay)
e|--------------------------------------------|
B|--------------------------------------------|
G|--------------------------------------------|
D|--5-5-5--4--2--------------------2--2-------|
A|---------------5----2-2-2-2-4----------5----|
E|--------------------------------------------|

[Verse]
[Acoustic Verse Riff]
       D    G/B       A          D          G/B    A         D
You'll say, we've got nothing in common, no common ground to start from
    G/B      A     D     G/B     A
and we're falling apart
       D        G/B       A      D             G/B        A      D
You'll say, the world has come between us, our lives have come between us
      G/B    A              D     G/B     A
still I know you just don't care

[Verse]
[Acoustic Verse Riff]
   D           G/B   A      D           G/B        A      D
I see you, the only one who knew me and now your eyes see through me 
G/B  A           D         G/B        A
   I guess I was wrong.
   D              G/B      A         D          G/B       A           D
So what now. it's plain to see we're over and I hate when things are over 
     G/B        A      D     G/B     A
when so much is left undone

[Chorus]
[Electric Chorus Chords]
     D                A            G/B            D                A
And I said what about Breakfast at Tiffany's, she said I think I remember 
    G/B         D                   A            G/B           D        
the film and as I recall I think we both kind of liked it, and I said well that's
    A               G/B 
the one thing we've got

[Verse]
[Acoustic Verse Riff]
       D    G/B       A          D          G/B    A         D
You'll say, we've got nothing in common, no common ground to start from
    G/B      A     D     G/B     A
and we're falling apart
       D        G/B       A      D             G/B        A      D
You'll say, the world has come between us, our lives have come between us
      G/B    A              D     G/B     A
still I know you just don't care

[Chorus]
[Electric Chorus Chords]
     D                A            G/B            D                A
And I said what about Breakfast at Tiffany's, she said I think I remember 
    G/B         D                   A            G/B           D        
the film and as I recall I think we both kind of liked it, and I said well that's
    A               G/B 
the one thing we've got

[Solo]
(Clean with Heavy Delay)
e|-----------------------------------------------------------|
B|-----------------------------------------------------------|
G|-----------------------------------------------------------|
D|--5-5-5--4--2--------------------2--2----------------------|
A|---------------5----2-2-2-2-4----------5----2-2-2---2-4/---|
E|--------------------------------------------------3--------|

e|-----------------------------------------------------------|
B|--8-8-8-7-5h7-----------------5-5--------------------------|
G|--------------7--4-4-4---4-6-------7---4-4-4-4-4-6---------|
D|-----------------------5-----------------------------------|
A|-----------------------------------------------------------|
E|-----------------------------------------------------------| Oooooohhhh...

[Chorus] (x2)
[Electric Chorus Chords]
     D                A            G/B            D                A
And I said what about Breakfast at Tiffany's, she said I think I remember 
    G/B         D                   A            G/B           D        
the film and as I recall I think we both kind of liked it, and I said well that's
    A               G/B 
the one thing we've got

[Outro]
[Acoustic Verse Riff]
e|-----------------------------------------------------------|
B|--8-8-8-7-5h7-----------------5-5--------------------------|
G|--------------7--4-4-4---4-6-------7---4-4-4-4-4-6---------|
D|-----------------------5-----------------------------------|
A|-----------------------------------------------------------|
E|-----------------------------------------------------------| (x2)

[Ending] 
D


************************************

| p  Pull-off
| /  Slide up
| h  Hammer-on

************************************
Suggest correction
Creating personal tab
Creating personal tab
You can edit any tab online and save it as your Personal.

You can edit, replace or remove any tab part or add personal notes – all changes will be seen only by you.

Personal tabs can be accessed anytime from any device, even offline.
Learn more »
Give kudos to tab author, rate the tab!
1 2 3 4 5
comments
print report bad tab
guest
You may want to rate the tab now too:
select rating
Wanna post a correction for this tab? Suggest correction