Oops, an error
Loading. Please wait.

We Gonna Feel It Tab

version 1
version 1

Solo

7,453 views 9 this week
no commentswrite comment
1 2 3 4 5
1 last vote to show rating
add to favorites
launch autoscroll
font size
0
reset
how to read this tab
guitar tuner
Autoscroll
slow
fast
+/-
esc
set tempo
stop
Help us to improve Ultimate-Guitar.com Take our survey!
×
Difficulty
novice
E||-------------------------|-------------------------|
B||-----8/10----10----10----|--8----10----10----12----|
G||-------------------------|-------------------------|
D||-------------------------|-------------------------|
A||-------------------------|-------------------------|
E||-------------------------|-------------------------|


                                                                             
--------------------------|-----------------------|-------------------------|
--13----13----13----12----|--10----8----5----8----|--8/10----10----10-------|
--------------------------|-----------------------|-------------------------|
--------------------------|-----------------------|-------------------------|
--------------------------|-----------------------|-------------------------|
--------------------------|-----------------------|-------------------------|


                                                             
-------------------------|--------------------------|-------|
--8----10----10----12----|--13----12----10----12----|--8----|
-------------------------|--------------------------|-------|
-------------------------|--------------------------|-------|
-------------------------|--------------------------|-------|
-------------------------|--------------------------|-------|


                                                                                
-------------------------|--------------------------|--------------------------|
-----8/10----12----13----|--12----12----13----15----|--13----12----13----10----|
-------------------------|--------------------------|--------------------------|
-------------------------|--------------------------|--------------------------|
-------------------------|--------------------------|--------------------------|
-------------------------|--------------------------|--------------------------|


                                                                      
-----------------------|----------------------|----------------------|
--10----8----5----3----|--5----3----3----5----|--1----1----0---------|
-----------------------|----------------------|-----------------0----|
-----------------------|----------------------|----------------------|
-----------------------|----------------------|----------------------|
-----------------------|----------------------|----------------------|


              
------------||
--1----0----||
------------||
------------||
------------||
------------||

Suggest correction
Give kudos to tab author, rate the tab!
1 2 3 4 5
comments
print report bad tab
guest
You may want to rate the tab now too:
select rating
Wanna post a correction for this tab? Suggest correction