Oops, an error
Loading. Please wait.

New Day Tab

672 views 1 this week
no commentswrite comment
1 2 3 4 5
please rate
add to favorites
launch autoscroll
font size
0
reset
how to read this tab
guitar tuner
Tab Pro tools
  • play this tab
  • loop segment
  • change instrument
  • show fretboard
  • metronome
Autoscroll
slow
fast
+/-
esc
set tempo
stop
Contributor
DEEP INSIGHT - NEW DAY
----------------------
(from the album: "One minute too late")

words and music by:  Deep Insight, http://www.myspace.com/deepinsight
tabbed by:           Jakob D. Siegler, http://www.myspace.com/jakobsiegler

(I'm sure the original Deep-Insight-guitars were not set in standard tuning, 
but I think these tabs make no difference in sound.)

INTRO:

time:| 1e+e2e+e3e+e4e+e| 1e+e2e+e3e+e4e+e |
     | Bb              | Dm       Dm  C   |

time:| 1 e + e 2 e + e 3 e + e 4 e + e | 1 e + e 2 e + e 3 e + e 4 e + e |
       Bb                                Dm                Dm      C      
    e|-------------8-8-8---------------|-------------8-8-8---------------|
    B|-------6-6-6-------6-6-6-5-5-6-6-|-------6-6-6-------6-6-6-5-5-6-6-|
    G|-7-7-7---------------------------|-7-7-7---------------------------|
    D|---------------------------------|---------------------------------|
    A|---------------------------------|---------------------------------|
    E|---------------------------------|---------------------------------|

       Bb                                Dm                Dm       C     
    e|-------------8-8-8---------------|-------------8-8-8-10-10-10---------|
    B|-------6-6-6-------6-6-6-5-5-6-6-|-------6-6-6----------------6-6-8-8-|
    G|-7-7-7---------------------------|-7-7-7------------------------------|
    D|---------------------------------|------------------------------------|
    A|---------------------------------|------------------------------------|
    E|---------------------------------|------------------------------------|

       Bb                                Dm                Dm      C      
    e|-------------8-8-8---------------|-------------8-8-8---------------|
    B|-------6-6-6-------6-6-6-5-5-6-6-|-------6-6-6-------6-6-6-5-5-6-6-|
    G|-7-7-7---------------------------|-7-7-7---------------------------|
    D|---------------------------------|---------------------------------|
    A|---------------------------------|---------------------------------|
    E|---------------------------------|---------------------------------|


       Bb              C                 F
    e|---------------------------------|---------------------------------|
    B|---------------------------------|---------------------------------|
    G|-3---3---3---3---5---5---5---5---|-10------------------------------|
    D|-3---3---3---3---5---5---5---5---|-10------------------------------|
    A|-1---1---1---1---3---3---3---3---|-8-------------------------------|
    E|---------------------------------|---------------------------------|



VERSE 1:

F          Dm                      Am
   In your eyes I’m nothing but a lost cause.
    Bb          C            (F)
It hurts and I can’t walk on.
F            Dm                  Am
   Astray inside everything that I hide.
       Bb            C          (Gm)
And I can’t find my way back home.
Gm                              Dm
   When it’s time to count the costs
     Am             Bb            C         (Bb)
I am so lost and I can’t make my way back home.



CHORUS:

Bb
   I don’t know how to make it
Dm
   but I’m not gonna waste it.
Am           Bb      C
     It’s a new day till the dawn.
Bb
   I don’t know how to say this
Dm
   but I’m not gonna fall for you.
Am           Bb      C        (F)
     It’s a new day till the dawn.



VERSE 2:

F        Dm                 Am
   On my own I need to be brave now.
    Bb        C             (F)
In your eyes heroes never die.
F          Dm                   Am
   Day by day I’m living for tomorrow.
        Bb      C           (Gm)
Do you like to see me this way?
Gm                              Dm
   When it’s time to count the costs
      Am             Bb            C
I am so lost. And I can’t make my way back home.



CHORUS:

Bb
   I don’t know how to make it
Dm
   but I’m not gonna waste it.
Am           Bb      C
     It’s a new day till the dawn.
Gm
   I don’t know how to say this
Dm
   but I’m not gonna fall for you.
Am           Bb      C        (Bb)
     It’s a new day till the dawn.



SOLO:

time:| 1 e + e 2 e + e 3 e + e 4 e + e | 1 e + e 2 e + e 3 e + e 4 e + e |
       Bb                                Dm                Dm      C      
    e|-------------8-8-8---------------|-------------8-8-8---------------|
    B|-------6-6-6-------6-6-6-5-5-6-6-|-------6-6-6-------6-6-6-5-5-6-6-|
    G|-7-7-7---------------------------|-7-7-7---------------------------|
    D|---------------------------------|---------------------------------|
    A|---------------------------------|---------------------------------|
    E|---------------------------------|---------------------------------|

       Bb                                Dm              Dm         C     
    e|-------------8-8-8---------------|----------------------------5-------|
    B|-------6-6-6-------6-6-6-5-5-6-6-|-------6-6-6-----6------------------|
    G|-7-7-7---------------------------|-7-7-7-------7-7--------------------|
    D|---------------------------------|------------------------------------|
    A|---------------------------------|------------------------------------|
    E|---------------------------------|------------------------------------|




BRIDGE:

        Gm              Bb      C
It’s a new day, it’s a new day till,
        Gm              Bb             (break) 
it’s a new day, it’s a new day till the dawn.



CHORUS VARIATION:

(break)                       (Dm)
   I don’t know how to make it
Dm
   but I’m not gonna waste it.
Am           Bb      C
     It’s a new day till the dawn.
Gm
   I don’t know how to say this
Dm                            Am
   but I’m not gonna fall for you.
          Bb
I don’t know how to make it (I don’t know how to make it)
         Dm
but I’m not gonna waste it (but I’m not gonna waste it).
Am                     Bb      C
  (It's a new) It’s a new day till the dawn.
          Bb
I don’t know how to make it (I don’t know how to make it)
         Dm                                Dm
but I’m not gonna waste it (I’m not gonna waste it).
   Am
A new day till the dawn.


OUTTRO:


t| 1 e + e 2 e + e 3 e + e 4 e + e | 1 e + e 2 e + e 3 e + e 4 e + e |
     Bb              C               Dm                Dm      C      
e|-------------8-8-8---------------|-------------8-8-8---------------|
B|-------6-6-6-------6-6-6-5-5-6-6-|-------6-6-6-------6-6-6-5-5-6-6-|
G|-X-7-7---------------------------|-7-7-7---------------------------|
D|---------------------------------|---------------------------------|
A|---------------------------------|---------------------------------|
E|---------------------------------|---------------------------------|

   Bb                C               Dm                Dm       C        Bb 
e|-------------8-8-8---------------|-------------8-8-8-10-10-10---------|---||
B|-------6-6-6-------6-6-6-5-5-6-6-|-------6-6-6----------------6-6-8-8-|---||
G|-7-7-7---------------------------|-7-7-7------------------------------|-7-||
D|---------------------------------|------------------------------------|---||
A|---------------------------------|------------------------------------|---||
E|---------------------------------|------------------------------------|---||




Yo, that's it!
Please send me your corrections if there are any mistakes (Mail: Jes54Vers10[at]web.de).
Visit my MySpace: http://www.myspace.com/jakobsiegler
Rock on! J.


comments
We did not receive enough feedback on this tab! Please rate:
print report bad tab
1 2 3 4 5
I want to post or [tab]
guest
You may want to rate the tab now too:
select rating
Please do not post tabs as comments. Select "correction" instead!