Oops, an error
Loading. Please wait.

Power Of Money Bass Tab

469 views 3 this week
no commentswrite comment
1 2 3 4 5
please rate
add to favorites
launch autoscroll
font size
0
reset
guitar tuner
Autoscroll
slow
fast
+/-
esc
set tempo
stop
Help us to improve Ultimate-Guitar.com Take our survey!
×
Difficulty
intermediate
Deep Kick-Power Of Money

Standard tuning-E,A,D,G

Legend

/ =Slide Up
b =Bend

Tabbed by Zanninovich

Intro
                   x7
G------------------|------------------|
D------------------|-------------4-4-4|
A-----4-4--4-4-----|----4-4---4-------|
E------------------|------------------|


Verse
                                    x4
-------------------------------------|
----------------2----------2-2-------|
--2-4---------------2--4----------4--|
-------3b---2------------------------|


-------------------------------------|
----------------2----------2-2-------|
--2-4---------------2--4----------2--|
-------3b---2------------------------|

                                    
-------------------------------------|
----------------2----------2-2-------|
--2-4---------------2--4----------4--|
-------3b---2------------------------|


Pre Chorus
                                  x4
-----------------------------------|
-----------------------------------|
-------2--4-444--2--4-444--2-4444--|
-----------------------------------|



Chorus

                               x3
--------------------------------|
-----2-2--4-4-------------------|
---------------22-44-2-4-24-24--|
--------------------------------|

-------------------------|
------2-2----------------|
--------------2-2--2/4---|
-------------------------|


Verse
                 x3
------------------|------------------|
------------------|-------------4-4-4|
-----4-4--4-4-----|----4-4---4-------|
------------------|------------------|

                                    x2
-------------------------------------|
----------------2----------2-2-------|
--2-4---------------2--4----------4--|
-------3b---2------------------------|


-------------------------------------|
----------------2----------2-2-------|
--2-4---------------2--4----------2--|
-------3b---2------------------------|

-------------------------------------|
----------------2----------2-2-------|
--2-4---------------2--4----------4--|
-------3b---2------------------------|


Pre Chorus

                                  x4
-----------------------------------|
-----------------------------------|
-------2--4-444--2--4-444--2-4444--|
-----------------------------------|

Chorus

                               x3
--------------------------------|
-----2-2--4-4-------------------|
---------------22-44-2-4-24-24--|
--------------------------------|

-------------------------|
------2-2----------------|
--------------2-2--2/4---|
-------------------------|


Bridge
                          x4
-------------3---------4---|
---------3----------3------|
-----4----------4----------|
---------------------------|

                               x8
--------------------------------|
-----------2--------------------|
---4-2-4------4-----------4--2--|
-----------------3---2----------|



Chorus

                               x3
--------------------------------|
-----2-2--4-4-------------------|
---------------22-44-2-4-24-24--|
--------------------------------|

---------------------------------------|
------2-2------------------------------|
--------------2-2--2/4-4-4-4-4-4-4-4---|
---------------------------------------|

                               x3
--------------------------------|
-----2-2--4-4-------------------|
---------------22-44-2-4-24-24--|
--------------------------------|

--------------------------------------------------------------------|
------2-2-----------------------------------------------------------|
--------------2-2--2/16-16-16-16-16-16-16-16-16-16-16-16-16-16--4---|
--------------------------------------------------------------------|
Suggest correction
Give kudos to tab author, rate the tab!
1 2 3 4 5
comments
print report bad tab
guest
You may want to rate the tab now too:
select rating
Wanna post a correction for this tab? Suggest correction