Oops, an error
Loading. Please wait.
We have Chord Pro version of All I Got Is You.
It's the closest thing you can get to the original song and it has interactive parts. Check out the tab »
×

All I Got Is You tab

version 1
version 1

Whole song

  • The tab contains the organ chords, but they can be played on guitar.

Interactive

757 views 24 this week
no commentswrite comment
1 2 3 4 5
3 more votes to show rating
add to favorites
×
Save as Personal and add changes to this tab that will be seen only by you. Learn more ›
×
You can save this tab as Personal to edit and correct it or add notes. All changes will be seen only by you. Learn more »
launch autoscroll
font size
0
reset
how to read this tab
guitar tuner
edit
Autoscroll
slow
fast
+/-
esc
set tempo
stop
Author
About this tab version
The tab contains the organ chords, but they can be played on guitar. Was this info helpful? Yes No
DEEP PURPLE  [ALL I GOT IS YOU]
[guitar standard tuning]


[Intro] - [ mainly organ chords]                                                      
Em                   C                    Am                               
e|--12----------------|--12----------------|--12----------------|
B|--12----------------|--13----------------|--13----------------|
G|--12----------------|--12----------------|--14----------------|
D|--------------------|--------------------|--------------------|
A|--------------------|--------------------|--------------------|
E|--------------------|--------------------|--------------------|

                                  Gtr. enters                                    
   Em            B7               Em                   C                                
e|--15------------14------------|--12----------------|--12----------------|
B|--17------------16------------|--12----------------|--13----------------|
G|--16------------14------------|--12----------------|--12----------------|
D|------------------------------|--------------------|--------------------|
A|------------------------------|--------------------|--------------------|
E|------------------------------|--------------------|--------------------|

   Am                   Em            B7               Em                                 
e|--12----------------|--15------------14------------|--12----------------|
B|--13----------------|--17------------16------------|--12----------------|
G|--14----------------|--16------------14------------|--12----------------|
D|--------------------|------------------------------|--------------------|
A|--------------------|------------------------------|--------------------|
E|--------------------|------------------------------|--------------------|

   C                    Am                   Em            B7                   
e|--12----------------|--12----------------|--15------------14------------|
B|--13----------------|--13----------------|--17------------16------------|
G|--12----------------|--14----------------|--16------------14------------|
D|--------------------|--------------------|------------------------------|
A|--------------------|--------------------|------------------------------|
E|--------------------|--------------------|------------------------------|

   Em                   C                    Am                              
e|--12----------------|--12----------------|--12----------------|
B|--12----------------|--13----------------|--13----------------|
G|--12----------------|--12----------------|--14----------------|
D|--------------------|--------------------|--------------------|
A|--------------------|--------------------|--------------------|
E|--------------------|--------------------|--------------------|

   Em            B7              Em                                                  
e|--15------------14------------|--0----------------|--0----------------|
B|--17------------16------------|--0----------------|--0----------------|
G|--16------------14------------|--0----------------|--0----------------|
D|------------------------------|-------------------|-------------------|
A|------------------------------|-------------------|-------------------|
E|------------------------------|-------------------|-------------------|

                                          .drums enters                          
                                          Em                                                   
e|--0----------------|--0----------------|--0----------------|--0----------------|
B|--0----------------|--0----------------|--0----------------|--0----------------|
G|--0----------------|--0----------------|--0----------------|--0----------------|
D|-------------------|-------------------|-------------------|-------------------|
A|-------------------|-------------------|-------------------|-------------------|
E|-------------------|-------------------|-------------------|-------------------|

  C                                       Am                                              
e|--0----------------|--0----------------|--0----------------|--0----------------|
B|--1----------------|--1----------------|--1----------------|--1----------------|
G|--0----------------|--0----------------|--2----------------|--2----------------|
D|-------------------|-------------------|-------------------|-------------------|
A|-------------------|-------------------|-------------------|-------------------|
E|-------------------|-------------------|-------------------|-------------------|

                      B7                    [Verse 1]           
  Em                                        Em                                 
e|--3----------------|--2----------------||---0----------------|
B|--5----------------|--4----------------||---0----------------|
G|--4----------------|--2----------------||*--0----------------|
D|-------------------|-------------------||*-------------------|
A|-------------------|-------------------||--------------------|
E|-------------------|-------------------||--------------------|

                      C                                       Am                                  
e|--0----------------|--0----------------|--0----------------|--0----------------|
B|--0----------------|--1----------------|--1----------------|--1----------------|
G|--0----------------|--0----------------|--0----------------|--2----------------|
D|-------------------|-------------------|-------------------|-------------------|
A|-------------------|-------------------|-------------------|-------------------|
E|-------------------|-------------------|-------------------|-------------------|

                                          B7                  
  C                   Em                                      
                                                           x2 
e|--0----------------|--3----------------|--2-----------------||
B|--1----------------|--5----------------|--4-----------------||
G|--2----------------|--4----------------|--2----------------*||
D|-------------------|-------------------|-------------------*||
A|-------------------|-------------------|--------------------||
E|-------------------|-------------------|--------------------||


E5       G5          A5       G5          E5       G5                              
e|---------------------|--------------------|--------------------|
B|---------------------|--------------------|--------------------|
G|*--------------------|--------------------|--------------------|
D|*-----------5--------|--7--------5--------|-----------5--------|
A|---2--------5--------|--7--------5--------|--2--------5--------|
E|---0-----------------|--------------------|--0-----------------|


    A5       G5             [Verse 2]                               
                            Em
e|---------------------||---0----------------|--0----------------|
B|---------------------||---0----------------|--0----------------|
G|--------------------*||*--0----------------|--0----------------|
D|--7--------5--------*||*-------------------|-------------------|
A|--7--------5---------||--------------------|-------------------|
E|---------------------||--------------------|-------------------|

  C                                       Am
e|--0----------------|--0----------------|--0----------------|--0----------------|
B|--1----------------|--1----------------|--1----------------|--1----------------|
G|--0----------------|--0----------------|--2----------------|--2----------------|
D|-------------------|-------------------|-------------------|-------------------|
A|-------------------|-------------------|-------------------|-------------------|
E|-------------------|-------------------|-------------------|-------------------|

[Interlude]
    G                   B7             (x2)    E5       G5
e|--3----------------|--2-----------------||---------------------|
B|--5----------------|--4-----------------||---------------------|
G|--4----------------|--2----------------*||*--------------------|
D|-------------------|-------------------*||*-----------5--------|
A|-------------------|--------------------||---2--------5--------|
E|-------------------|--------------------||---0-----------------|

  A5       G5          E5       G5          A5       G5          
                                                               4x
e|--------------------|--------------------|---------------------||
B|--------------------|--------------------|---------------------||
G|--------------------|--------------------|--------------------*||
D|--7--------5--------|-----------5--------|--7--------5--------*||
A|--7--------5--------|--2--------5--------|--7--------5---------||
E|--------------------|--0-----------------|---------------------||

  Something...                                              
  Bm                  G                   A                               
e|-------------------|-------------------|-------------------|
B|--3----------------|-------------------|--2----------------|
G|--4----------------|--4----------------|--2----------------|
D|--4----------------|--5----------------|--2----------------|
A|--2----------------|--5----------------|--0----------------|
E|-------------------|--3----------------|-------------------|
                                                           
  A        F#5  A        Bm                  D        D         
          
e|---------------------|-------------------|--------------------|
B|--2------------------|--3----------------|--7-----------------|
G|--2------------------|--4----------------|--7-----------------|
D|--2--------4----7----|--4----------------|--7--------4--------|
A|--0--------4----7----|--2----------------|--5--------5--------|
E|-----------2----5----|-------------------|-----------2--------|

                                          can you...                            
  A                   A                   E5                  G                        
e|-------------------|-------------------|-------------------|-------------------|
B|--2----------------|--2----------------|-------------------|-------------------|
G|--2----------------|--2----------------|-------------------|--4----------------|
D|--2----------------|--2----------------|--2----------------|--5----------------|
A|--0----------------|--0----------------|--2----------------|--5----------------|
E|-------------------|-------------------|--0----------------|--3----------------|

  A                   A        F#5  A       Bm                  
e|-------------------|---------------------|-------------------|
B|--2----------------|--2------------------|--3----------------|
G|--2----------------|--2------------------|--4----------------|
D|--2----------------|--2--------4----7----|--4----------------|
A|--0----------------|--0--------4----7----|--2----------------|
E|-------------------|-----------2----5----|-------------------|
                                                            
  D                    A                                                                     
e|--------------------|-------------------|-------------------|
B|--3-----------------|-------------------|-------------------|
G|--2-----------------|-------------------|-------------------|
D|--4--------4--------|--2----------------|--2----------------|
A|--5--------5--------|--0----------------|--0----------------|
E|-----------2--------|-------------------|-------------------|

[Bridge]                                                     
e|------------------------------|--------------------|--------------------|
B|------------------------------|--------------------|--------------------|
G|------------------------------|--------------------|--2--------5--------|
D|------------------------------|-----------4--------|--------------------|
A|---------------------2--------|--5-----------------|--------------------|
E|--3---------------------------|--------------------|--------------------|

[Keyboard Solo]                        
Bm                                                
e|-----------3--------||--------------------|-------------------|
B|--5-----------------||---3----------------|--3----------------|
G|--------------------||*--4----------------|--4----------------|
D|--------------------||*--4----------------|--4----------------|
A|--------------------||---2----------------|--2----------------|
E|--------------------||--------------------|-------------------|

                                             [Guitar Solo-Section]  
                                        4x    F#               
e|-------------------|--------------------||----------------------|
B|--3----------------|--3-----------------||----------------------|
G|--4----------------|--4----------------*||----------------------|
D|--4----------------|--4----------------*||--4-------------------|
A|--2----------------|--2-----------------||--4-------------------|
E|-------------------|--------------------||--2-------------------|

    A                   E                   E        C#   7
e|-------------------|-------------------|-- -------------------|
B|-------------------|-------------------|---------------------|
G|-------------------|-------------------|-----------6----9----|
D|--7----------------|--2----------------|--2--------6----9----|
A|--7----------------|--2----------------|--2--------4----7----|
E|--5----------------|--0----------------|--0------------------|

    F#                  E        A           E              
e|-------------------|--------------------|-------------------|
B|-------------------|--------------------|-------------------|
G|-------------------|--------------------|-------------------|
D|--4----------------|--2--------7--------|--2----------------|
A|--4----------------|--2--------7--------|--2----------------|
E|--2----------------|--0--------5--------|--0----------------|

    E                   D                   D9                  E
e|-------------------|-------------------|-------------------|-------------------|
B|-------------------|-------------------|--5----------------|-------------------|
G|-------------------|--7----------------|-------------------|--9----------------|
D|--2----------------|--7----------------|--7----------------|--9----------------|
A|--2----------------|--5----------------|--5----------------|--7----------------|
E|--0----------------|-------------------|-------------------|-------------------|

    E        C#   E       F#                  E        A       
e|---------------------|-------------------|--------------------|
B|---------------------|-------------------|--------------------|
G|---------------------|-------------------|--------------------|
D|--9--------6----9----|--4----------------|--2--------7--------|
A|--7--------4----7----|--4----------------|--2--------7--------|
E|---------------------|--2----------------|--0--------5--------|

[Bridge- Em]                            
    E                                                      
e|-------------------|-------------------|--0----------------|--0----------------|
B|-------------------|-------------------|--0----------------|--0----------------|
G|-------------------|-------------------|--0----------------|--0----------------|
D|--2----------------|--2----------------|--2----------------|--2----------------|
A|--2----------------|--2----------------|--2----------------|--2----------------|
E|--0----------------|--0----------------|--0----------------|--0----------------|

[Verse 3]        
    Em                                        Em                          
e|--0----------------|--0----------------||---0-----------------|
B|--0----------------|--0----------------||---0-----------------|
G|--0----------------|--0----------------||*--0-----------------|
D|--2----------------|--2----------------||*--2-----------------|
A|--2----------------|--2----------------||---2-----------------|
E|--0----------------|--0----------------||---0------------2----|

           |----3----|                                               
    G                          C                            
e|--3-----------------------|-------------------|---------------------|
B|--3-----------------------|--1----------------|--1------------------|
G|--4-----------------------|--0----------------|--0------------------|
D|--5-----------------------|--2----------------|--2------------------|
A|--5-----------------------|--3----------------|--3--------3----2----|
E|--3--------L----5----7----|-------------------|---------------------|

    Am                                      G                 
e|-------------------|-------------------|-------------------|
B|--1----------------|--1----------------|-------------------|
G|--2----------------|--2----------------|--4----------------|
D|--2----------------|--2----------------|--5----------------|
A|--0----------------|--0----------------|--5----------------|
E|-------------------|-------------------|--3----------------|

                           E5       G5          A5       G5        
    B7                               
e|--------------------||---------------------|--------------------|
B|--------------------||---------------------|--------------------|
G|--4----------------*||*--------------------|--------------------|
D|--4----------------*||*-----------5--------|--7--------5--------|
A|--2-----------------||---2--------5--------|--7--------5--------|
E|--------------------||---0-----------------|--------------------|

  E5       G5          A5       G5                    
                                            4x                            
e|--------------------|---------------------||-----------------------------|
B|--------------------|---------------------||-----------------------------|
G|--------------------|--------------------*||-----------------------------|
D|-----------5--------|--7--------5--------*||-----------------------------|
A|--2--------5--------|--7--------5---------||--------------------2--------|
E|--0-----------------|---------------------||--3--------------------------|
         
e|--------------------|--------------------|-----------3--------|
B|--------------------|--------------------|--5-----------------|
G|--------------------|--2--------5--------|--------------------|
D|-----------4--------|--------------------|--------------------|
A|--5-----------------|--------------------|--------------------|
E|--------------------|--------------------|--------------------|

    E             
e|--------------------||
B|--------------------||
G|--------------------||
D|--2-----------------||
A|--2-----------------||
E|--0-----------------||



************************************

| *  Natural harmonic
| x  Dead note

************************************
Suggest correction
Creating personal tab
Creating personal tab
You can edit any tab online and save it as your Personal.

You can edit, replace or remove any tab part or add personal notes – all changes will be seen only by you.

Personal tabs can be accessed anytime from any device, even offline.
Learn more »
Give kudos to tab author, rate the tab!
1 2 3 4 5
comments
print report bad tab
guest
You may want to rate the tab now too:
select rating
Wanna post a correction for this tab? Suggest correction