Oops, an error
Loading. Please wait.

Anya Bass Tab

version 1
version 1

Whole song

Interactive

1,687 views 1 this week
no commentswrite comment
1 2 3 4 5
please rate
add to favorites
launch autoscroll
font size
0
reset
guitar tuner
Tab Pro tools
  • play this tab
  • loop segment
  • change instrument
  • show fretboard
  • metronome
×
Best way to learn
"Anya"
Autoscroll
slow
fast
+/-
esc
set tempo
stop
Contributor
Difficulty
Song: Anya
Band: Deep Purple
Bassist: Roger Glover
Album: The Battle Rages On...
Trancripted by Denis Boggiani

After the guitar introduction, the bass enters with long notes, with the
attack of the drums together. From the 41st. compass 'til 45th., happen the
named "vamp" (when the bass hold the same note while the guitar plays other
chords that harmonize with the holded note). At the 47th., 48th., 55th. and
the 56th. compass, appears the note F# (that not belongs to the Am scale),
that gain the name of "chromatic aproximation note", that ever finds itself
half step down of the note that make part of the scale, triad, tetrad, etc...
From the 144th. compass 'til 158th. compass - when the Ritchie Blackmore's
solo begins - Glover used a bass pedal playing the E note, while others still
being played (E is his bass pedal). From the 183th. compass 'til the end,
looke that every notes are sincoped (it aren't on the strongtime of the
compass. In that case, it are on the second time of each compass.

        22
G|---------------||-----------------|----------------|----------------|-----------------||
D|-_____________-||º----------------|----------------|----------------|----------------º||
A|---------------||º----------------|----------------|----------------|----------------º||
E|---------------||--5--------------|----------------|----------------|-3------0--------||

G|----------------|----------------|----------------|----------------|----------------|
D|----------------|----------------|----------------|----------------|----------------|
A|----------------|----------------|----------------|----------------|----------------|
E|-5--------------|----------------|----------------|-3------0-------|-5--------------|

G|----------------|----------------|----------------|----------------|----------------|
D|----------------|----------------|----------------|----------------|----------------|
A|----------------|----------------|----------------|----------------|----------------|
E|----------------|----------------|--------------3-|----------------|-0--------------|

G|----------------|----------------|----------------|----------------|----------------|
D|----------------|----------------|----------------|----------------|----------------|
A|----------------|----------------|----------------|----------7-5---|----------------|
E|5-5-5-5-5-5-5-5-|5-5-5-5-5-5-5-5-|5-5-5-5-5-5-5-5-|5-5-5-5-5-----8-|5-5-5-5-5-5-5-5-|

G|----------------|----------------|----------------|----------------|
D|----------------|----------------|----------------|----------------|
A|----------------|----------------|----------------|----------------|
E|5-5-5-5-5-5-5-5-|5-5-5-5-5-5-5-5-|5-5-5-5-5-5-5-3-|5-5-5-5-5-5-5-5-|

G|----------------|----------------|----------------|----------------|
D|----------------|4-5-5-5-4-5-5---|5-5-5-5-4-5-5---|----------------|
A|3-3-3-3-3-3-3-3-|----------------|----------------|----------------|
E|----------------|----------------|----------------|5-5-5-5-5-5-5-5-|

G|----------------|----------------|----------------|----------------|
D|----------------|----------------|----------------|----------------|
A|----------------|----------------|--------------3-|--------------2-|
E|5-5-5-5-5-5-5-5-|5-5-5-5-5-5-5-5-|5-5-5-5-5-0-3---|5-5-5-5-5-5-5---|

G|----------------|----------------|----------------||-----------------|
D|----------------|----------------|----------------||º----------------|
A|3-3-3-3-3-3-3-3-|----------------|----------------||º5-5-5-5-5-5-3---|
E|----------------|2-3-3-3-2-3-3-2-|3-3-3-3-2-3-3---||---------------5-|

G|----------------|----------------|-----------------||----------------|
D|--------5---3---|----------------|--------5---3---º||----------------|
A|5-5-3-5---------|5-5-5-5-5-5-3---|5-5-3-5---------º||----------------|
E|----------------|--------------5-|-----------------||0-0-0-0-0-0-0-0-|

G|----------------|----------------|----------------|----------------|
D|----------------|----------------|----------------|----------------|
A|----------------|----------------|--------7---5-7-|----------------|
E|0-0-0-0-0-0-0-0-|0-0-0-0-0-0-0-0-|0-0-0-0---7-----|0-0-0-0-0-0-0-0-|

G|----------------|----------------|----------------||----------------|
D|----------------|----------------|----------------||----------------|
A|----------------|--------7---5-7-|----------------||------------5-7-|
E|0-0-0-0-0-0-0-0-|0-0-0-0---7-----|----------------||5-5-5-5-5-5-----|

G|----------------|----------------|----------------|----------------|
D|----------------|----------------|----------------|----------------|
A|----------------|----------------|----------------|------------5-7-|
E|5-5-5-5-5-5-7-8-|5-5-5-5-5-5-5-5-|3-3-3-3-0-0-0-0-|5-5-5-5-5-5-----|

G|----------------|----------------|----------------|----------------|
D|----------------|----------------|----------------|----------------|
A|----------------|----------------|----------------|------------5-7-|
E|5-5-5-5-5-5-7-8-|5-5-5-5-5-5-5-5-|7-7-7-7-3-3-3-3-|5-5-5-5-5-5-----|

G|----------------|----------------|----------------|----------------|
D|----------------|----------------|----------------|----------------|
A|----------------|----------------|--------7-7-7-7-|------------5-7-|
E|5-5-5-5-5-5-7-8-|5-5-5-5-5-5-5-5-|3-3-3-3---------|5-5-5-5-5-5-----|

                                                    \_1.______________
G|----------------|----------------|----------------|----------------|
D|----------------|----------------|----------------|----------------|
A|----------------|----------------|----------------|----------------|
E|5-5-5-5-5-5-7-8-|5-5-5-5-5-5-5-3-|----------------|--0-------------|

______________________________________________________________________
G|----------------|----------------|----------------|----------------|
D|----------------|----------------|----------------|----------------|
A|----------------|----------------|----------------|----------------|
E|5-5-5-5-5-5-5-5-|5-5-5-5-5-5-5-5-|5-5-5-5-5-5-5-5-|5-5-5-5-5-5-5-5-|

______________________________________________________________________|
G|----------------|----------------|----------------|-----------------||
D|----------------|----------------|--------------7-|--7-7-7-7-7-7---º||
A|----------------|----------------|----------5-7---|----------------º||
E|5-5-5-5-5-5-5-5-|5-5-5-5-5-5-5-5-|5-5-5-5-5-------|-----------------||

 \_2._____________|
G|----------------|----------------|----------------|----------------|
D|-0--------------|----------------|----------------|----------------|
A|----------------|----------------|----------------|----------------|
E|----------------|5-5-5-5-5-5-5-5-|5-5-5-5-5-5-5-5-|5-5-5-5-5-5-5-5-|

G|----------------|----------------|----------------|----------------|
D|----------------|----------------|----------------|4-5-5-5-4-5-5-4-|
A|----------------|----------------|3-3-3-3-3-3-3-3-|----------------|
E|5-5-5-5-5-5-5-3-|5-5-5-5-5-5-5-5-|----------------|----------------|

G|----------------|----------------|----------------|----------------|
D|5-5-5-5-4-5-5-5-|----------------|----------------|----------------|
A|----------------|----------------|----------------|----------------|
E|----------------|5-5-5-5-5-5-5-5-|5-5-5-5-5-5-5-5-|5-5-5-5-5-5-5-5-|

G|----------------|----------------|----------------|----------------|
D|----------------|----------------|----------------|----------------|
A|--------------3-|--------------2-|3-3-3-3-3-3-3-3-|----------------|
E|5-5-5-5-5-0-3---|5-5-5-5-5-5-5---|----------------|2-3-3-3-2-3-3-2-|

G|----------------|----------------|----------------|----------------|
D|----------------|----------------|--------5--3----|----------------|
A|----------------|5-5-5-5-5-5-3---|5-5-3-5---------|5-5-5-5-5-5-3---|
E|3-3-3-3-2-3-3---|--------------5-|----------------|--------------5-|

G|----------------|----------------|----------------|----------------|
D|--------5--3----|----------------|--------5-------|----------------|
A|5-5-3-5---------|5-5-5-5-5-5-----|5-5---5----8----|5-5-5-5-5-5-----|
E|----------------|------------8-5-|----8-----------|------------8-5-|

G|----------------|----------------|----------------|----------------|
D|--------5-------|----------------|----------------|----------------|
A|5-5---5----8----|----------------|----------------|----------------|
E|----8-----------|0-0-0-0-0-0-0-0-|0-0-0-0-0-0-0-0-|0-0-0-0-0-0-0-0-|

G|----------------|----------------|----------------|----------------|
D|----------------|----------------|----------------|----------------|
A|--------7---5-7-|----------------|----------------|--------7---5-7-|
E|0-0-0-0---7-----|0-0-0-0-0-0-0-0-|0-0-0-0-0-0-0-0-|0-0-0-0---7-----|

G|----------------|----------------|----------------|----------------|
D|----------------|----------------|----------------|----------------|
A|----------------|------------5-7-|----------------|----------------|
E|----------------|5-5-5-5-5-5-----|5-5-5-5-5-5-7-8-|5-5-5-5-5-5-5-5-|

G|----------------|----------------|----------------|----------------|
D|----------------|----------------|----------------|----------------|
A|----------------|------------5-7-|----------------|----------------|
E|3-3-3-3-0-0-0-0-|5-5-5-5-5-5-----|5-5-5-5-5-5-7-8-|5-5-5-5-5-5-5-5-|

G|----------------|----------------|----------------|----------------|
D|----------------|----------------|----------------|----------------|
A|----------------|------------5-7-|----------------|----------------|
E|7-7-7-7-3-3-3-3-|5-5-5-5-5-5-----|5-5-5-5-5-5-7-8-|5-5-5-5-5-5-5-5-|

G|----------------|----------------|----------------|----------------|
D|----------------|----------------|----------------|----------------|
A|--------7-7-7-7-|------------5-7-|----------------|----------------|
E|3-3-3-3---------|5-5-5-5-5-5-----|5-5-5-5-5-5-7-8-|5-5-5-5-5-5-5-3-|


G|----------------|----------------|----------------|----------------|
D|----------------|----------------|----------------|----------------|
A|----------------|--5-------------|----7---8---5-7-|----------------|
E|----------------|----------------|0-0---0---0-----|0-0-0-0-0-0-0-0-|

G|----------------|----------------|----------------|----------------|
D|----------------|----------------|----------------|----------------|
A|----7---8---5-7-|----------------|----7---8---5-7-|----------------|
E|0-0---0---0-----|0-0-0-0-0-0-0-0-|0-0---0---0-----|0-0-0-0-0-0-0-0-|

G|----------------|----------------|----------------|----------------|
D|----------------|----------------|----------------|----------------|
A|----7---8---5-7-|----------------|----7---8---5-7-|----------------|
E|0-0---0---0-----|0-0-0-0-3-0-5-3-|0-0---0---0-----|0-0-0-0-0-0-0-3-|

G|----------------|----------------|----------------|----------------|
D|----------------|--------------5-|----------------|----------------|
A|----7---8---5-7-|--7---777-777---|----------------|----------------|
E|5-0---0---0-----|----------------|--5-------------|----------------|

G|----------------|----------------|----------------|----------------|
D|----------------|----------------|----------------|----------------|
A|----------------|----------------|----------------|----------------|
E|----------------|3-------0-------|--5-------------|----------------|

G|----------------|----------------|----------------||-----------------|
D|----------------|----------------|----------------||º----------------|
A|----------------|----------------|----------------||º5-5-5-5-5-5-----|
E|------------3---|----------------|--0-------------||-------------8-5-|

G|----------------|----------------|-----------------||----------------|
D|--------5-------|----------------|--------5-------º||----------------|
A|5-5---5-----8---|5-5-5-5-5-5-----|5-5---5-----8---º||----------------|
E|----8-----------|------------8-5-|----8------------||0-0-0-0-0-0-0-0-|

G|----------------|----------------|----------------|----------------|
D|----------------|----------------|----------------|----------------|
A|----------------|----------------|--------7---5-7-|----------------|
E|0-0-0-0-0-0-0-0-|0-0-0-0-0-0-0-0-|0-0-0-0---7-----|0-0-0-0-0-0-0-0-|

G|----------------|----------------|----------------|----------------|
D|----------------|----------------|----------------|----------------|
A|----------------|----------------|--------7---5-7-|----------------|
E|0-0-0-0-0-0-0-0-|0-0-0-0-0-0-0-0-|0-0-0-0---7-----|----------------|

G|----------------|----------------|----------------|----------------|
D|----------------|----------------|----------------|----------------|
A|----------------|----------------|----------------|----------------|
E|5-5-5-5-5-5-5-5-|7-7-7-7-3-3-3-3-|-----5-----5----|-----5-----5----|

G|----------------|----------------|----------------|----------------|
D|----------------|----------------|----------------|----------------|
A|----------------|----------------|----------------|----------------|
E|-----5-----5----|----3------0--5-|-----5-----5----|-----5-----5----|

G|----------------|----------------|----------------|----------------|
D|----------------|----------------|----------------|----------------|
A|----------------|----------------|----------------|----------------|
E|-----5-----5----|----3------0--5-|-----5-----5----|-----5-----5----|

G|----------------|----------------|----------------|----------------|
D|----------------|----------------|----------------|----------------|
A|----------------|----------------|----------------|----------------|
E|-----5-----5----|----3------0--5-|-----5-----5----|-----5-----5----|

G|----------------|----------------|----------------|----------------|
D|----------------|----------------|----------------|----------------|
A|----------------|----------------|----------------|----------------|
E|----5-----5--3--|----------------|-0--------------|-5--------------|

G|----------------||
D|----------------||
A|----------------||
E|----------------||
comments
We did not receive enough feedback on this tab! Please rate:
print report bad tab
1 2 3 4 5
I want to post or [tab]
guest
You may want to rate the tab now too:
select rating
Please do not post tabs as comments. Select "correction" instead!