Oops, an error
Loading. Please wait.

Bad Attitude Bass Tab

version 1
version 1

Whole song

Interactive

758 views 1 this week
1 commentread comment
1 2 3 4 5
2 more votes to show rating
add to favorites
launch autoscroll
font size
0
reset
guitar tuner
Autoscroll
slow
fast
+/-
esc
set tempo
stop
Help us to improve Ultimate-Guitar.com Take our survey!
×
Band: Deep Purple
Song: Bad Attitude
Album: House Of Blue Light





     W                   W                   W                 
G||-------------------|-------------------|-------------------|
D||-------------------|-------------------|-------------------|
A||-------------------|-------------------|-------------------|
E||-------------------|-------------------|-------------------|


  W                   W                   W                   W                 
-------------------|-------------------|-------------------|-------------------|
-------------------|-------------------|-------------------|-------------------|
-------------------|-------------------|-------------------|-------------------|
-------------------|-------------------|-------------------|-------------------|


  W                   W                   W                 
-------------------|-------------------|-------------------|
-------------------|-------------------|-------------------|
-------------------|-------------------|-------------------|
-------------------|-------------------|-------------------|


  E  Q      E   H           W                   E  Q      E   H         
-------------------------|-------------------|-------------------------|
-------------------------|-------------------|-------------------------|
-------------------------|-------------------|-------------------------|
--7--7S----(0)-----------|-------------------|--7--7S----(0)-----------|


  H        Q    E.    S       E  E  E  E  E  E  E  E    
-------------------------||----------------------------|
----------------9S---(0)-||*---------------------------|
-------------------------||*-----------5--5------------|
-------------------------||---7--7--------------7--7S--|


  Q     E   E  H           E  E  E  E  E  E  E  E      Q    Q    H         
------------------------|---------------------------|---------------------|
------------------------|---------------------------|---------------------|
------------------------|-----------5--5------------|---------------------|
--L----(x)--------------|--7--7--------------7--7S--|--L------------------|


  E  E  E  E  E  E  E  E     Q    Q    H           E  E  E  E  E  E  E  E    
--------------------------|---------------------|---------------------------|
--------------------------|---------------------|---------------------------|
--------------------------|---------------------|-----------5--5------------|
--3--3-----5--5-----0--0--|--L------------------|--7--7--------------7--7S--|


  Q     E   E  H           E  E  E  E  E  E  E  E      Q     E   E  H         
------------------------|---------------------------|------------------------|
------------------------|---------------------------|------------------------|
------------------------|-----------5--5------------|------------------------|
--L----(x)--------------|--7--7--------------7--7S--|--L----(x)--------------|


  E  E  E  E  E  E  E  E      Q    Q    H           E  E  E  E  E  E  E  E   
---------------------------|---------------------|--------------------------|
---------------------------|---------------------|--------------------------|
-----------5--5------------|---------------------|--------------------------|
--7--7--------------7--7S--|--L------------------|--3--3-----5--5-----0--0--|


  Q    Q    H           E  E  E  E  E  E  E  E     W                 
---------------------|--------------------------|-------------------|
---------------------|--------------------------|-------------------|
---------------------|-----------5--5-----7--7--|--L----------------|
--L------------------|--7--7--------------------|-------------------|


  W                   W                   E  E  E  E  E  E  E  E   
-------------------|-------------------|--------------------------|
-------------------|-------------------|--------------------------|
--L----------------|--L----------------|--------------------------|
-------------------|-------------------|-----0--2--0--3--0--5--3--|


  E  E  E  E  E  E  E  E     E  E  E  E  E  E  E  E   
--------------------------|--------------------------|
--------4--------7--------|--------------------------|
--2--2-----5--5-----4--4--|--L-----------------------|
--------------------------|-----0--0--0--2--0--5--4--|


  E  E  E  E  E  E  E  E     E  E  E  E  E  E  E  E   
--------------------------|--------------------------|
--------4--------7--------|--------------------------|
--2--2-----5--5-----7--7--|--L--7--7--7--7--7--5--4--|
--------------------------|--------------------------|


  E  E  E  E  E  E  E  E     E  E  E  E  E  E  E  E   
--------------------------|--------------------------|
--------4--------7--------|--------------------------|
--2--2-----5--5-----4--4--|--L-----------------------|
--------------------------|-----0--0--0--2--0--5--4--|


  E  E  E  E  E  E  E  E     W                   W                   
-----4--------7-----------|-------------------|--------------------||
--------4--------7--------|-------------------|-------------------*||
--2--------5--------5--7--|--L----------------|--L----------------*||
--------------------------|-------------------|--------------------||


  E  E  E  E  E  E  E  E     E  E  E  E  E  E  E  E   
-----4--------7-----------|--------------------------|
--------4--------7--------|--------------------------|
--2--------5--------5--7--|--L--7--7--7--7--5--4--2--|
--------------------------|--------------------------|


  E  E  E  E  E  E  E  E     E  E  E  E  E  E  E  E   
--------------------------|--------------------------|
--------4--------7--------|--------------------------|
--2--2-----5--5-----4--4--|--L-----------------------|
--------------------------|-----0--0--0--2--0--5--4--|


  E  E  E  E  E  E  E  E     E  E  E  E  E  E  E  E   
--------------------------|--------------------------|
--------4--------7--------|--------------------------|
--2--2-----5--5-----7--7--|--L--7--7--5--7--7--5--4--|
--------------------------|--------------------------|


  E  E  E  E  E  E  E  E     E  E  E  E  E  E  E  E   
--------------------------|--------------------------|
--------4--------7--------|--------------------------|
--2--2-----5--5-----7--7--|--L-----------------------|
--------------------------|-----0--0--0--2--0--5--4--|


  E  E  E  E  E  E  E  E     H.           E  E     H.           E  E   
-----4--------7-----------|---------------------|---------------------|
--------4--------7--------|------------------2--|--L------------------|
--2--------5--------5--7--|--L---------------0--|--L---------------2--|
--------------------------|---------------------|------------------0--|


  H.           E  E     E  H        Q    E     E  H        Q    E   
---------------------|----------------------|----------------------|
------------------2--|--L--L--------2-------|--------------2-------|
--L---------------0--|--L--L--------0----2--|--L--L-------------0--|
--L------------------|-------------------0--|--L--L----------------|


  Q.     H        E     H.           E  E     W                 
---------------------|---------------------|-------------------|
---------2-----------|------------------2--|--L----------------|
--L---------------2--|--L---------------0--|--L----------------|
------------------0--|--L------------------|-------------------|


  E  S S Q    E  S S Q       E  E  E  E  S  S E  S  S E   
--------------------------|------------------------------|
---------4-----------4----|-------------------2----------|
--------------------------|--------0--2--2h-4----4p-2-0--|
--0--2-2------0--2-2------|-----2------------------------|


  E  S S Q    E  S S Q       E  E  E  E  S  S E  S  S E   
--------------------------|------------------------------|
---------4-----------4----|-------------------2----------|
--------------------------|--------0--2--2h-4----4p-2-0--|
--0--2-2------0--2-2------|-----2------------------------|


  E  E  E  E  E  E  E  E     W                   E  E  E  E  E  E  E  E   
--------------------------|-------------------|--------------------------|
--------------------------|-------------------|--------------------------|
-----------5--5-----------|-------------------|-----------5--5-----------|
--7--7--------------7--7--|-------------------|--7--7--------------7--7--|


  W                   E  E  E  E  E  E  E  E     W                 
-------------------|--------------------------|-------------------|
-------------------|--------------------------|-------------------|
-------------------|--------------------------|-------------------|
-------------------|--3--3-----5--5-----0--0--|-------------------|


  E  E  E  E  E  E  E  E     W                   E  E  E  E  E  E  E  E   
--------------------------|-------------------|--------------------------|
--------------------------|-------------------|--------------------------|
-----------5--5-----------|-------------------|-----------5--5-----------|
--7--7--------------7--7--|-------------------|--7--7--------------7--7--|


  W                   E  E  E  E  E  E  E  E     W                 
-------------------|--------------------------|-------------------|
-------------------|--------------------------|-------------------|
-------------------|-----------5--5-----------|-------------------|
-------------------|--7--7--------------7--7--|-------------------|


  E  E  E  E  E  E  E  E     W                   E  E  E  E  E  E  E  E   
--------------------------|-------------------|--------------------------|
--------------------------|-------------------|--------------------------|
--------------------------|-------------------|-----------5--5-----7--7--|
--3--3-----5--5-----0--0--|-------------------|--7--7--------------------|


  H.           Q         W                    E  E  E  E  E  E  E  E   
---------------------|---------------------|--------------------------|
---------------2S----|--14~----------------|--------4--------7--------|
--L------------------|---------------------|--2--2-----5--5-----4--4--|
---------------------|---------------------|--------------------------|


  E  E  E  E  E  E  E  E     E  E  E  E  E  E  E  E   
--------------------------|--------------------------|
--------------------------|--------4--------7--------|
--L-----------------------|--2--2-----5--5-----7--7--|
-----0--0--0--2--0--5--4--|--------------------------|


  E  E  E  E  E  E  E  E     E  E  E  E  E  E  E  E   
--------------------------|--------------------------|
--------------------------|--------4--------7--------|
--L--7--7--7--7--7--5--4--|--2--2-----5--5-----4--4--|
--------------------------|--------------------------|


  E  E  E  E  E  E  E  E     E  E  E  E  E  E  E  E   
--------------------------|-----4--------7-----------|
--------------------------|--------4--------7--------|
--L-----------------------|--2--------5--------5--7--|
-----0--0--0--2--0--5--4--|--------------------------|


  E  E  E  E  E  E  E  E     E  E  E  E  E  E  E  E   
--------------------------|--------------------------|
--------------------------|--------4--------7--------|
--L--7--7--7--7--5--4--2--|--2--2-----5--5-----4--4--|
--------------------------|--------------------------|


  E  E  E  E  E  E  E  E     E  E  E  E  E  E  E  E   
--------------------------|--------------------------|
--------------------------|--------4--------7--------|
--L-----------------------|--2--2-----5--5-----7--7--|
-----0--0--0--2--0--5--4--|--------------------------|


  E  E  E  E  E  E  E  E     E  E  E  E  E  E  E  E   
--------------------------|--------------------------|
--------------------------|--------4--------7--------|
--L--7--7--5--7--7--5--4--|--2--2-----5--5-----7--7--|
--------------------------|--------------------------|


  E  E  E  E  E  E  E  E     E  E  E  E  E  E  E  E   
--------------------------|-----4--------4-----------|
--------------------------|--------4--------4--------|
--L-----------------------|--2--------5--------5--7--|
-----0--0--0--2--0--5--4--|--------------------------|


  E  E  E  E  E  E  E  E     E  E  E  E  E  E  E  E   
--------------------------|--------------------------|
--------------------------|--------------------------|
--L--7--7--7--L--7--7--5--|--2--2--2--5--5--5--4--4--|
--------------------------|--------------------------|


  E  E  E  E  E  E  E  E     E  E  E  E  E  E  E  E   
--------------------------|--------------------------|
--------------------------|--------------------------|
--4-----------4--4--4--2--|--2--2-----------0--0--0--|
-----0--0--0--------------|--------2--2--2-----------|


  E  E  E  E  E  E  E  E     E  E  E  E  E  E  E  E   
--------------------------|--------------------------|
--------------------------|--------------------------|
--2--2--2--5--5--5--4--4--|--4-----------4--4--4--2--|
--------------------------|-----0--0--0--------------|


  E  E  E  E  E  E  E  E     E  E  E  E  E  E  E  E   
--------------------------|--------------------------|
--------------------------|--------------------------|
--2--2--------------------|--2--2--2--5--5--5--4--4--|
--------2--2--2--0--0--0--|--------------------------|


  E  E  E  E  E  E  E  E     E  E  E  E  E  E  E  E   
--------------------------|--------------------------|
--------------------------|--------------------------|
--4-----------4--4--4--2--|--2--2-----------0--0--0--|
-----0--0--0--------------|--------2--2--2-----------|


  E  E  E  E  E  E  E  E     E  E  E  E  E  E  E  E   
--------------------------|--------------------------|
--------------------------|--------------------------|
--2--2--2--5--5--5--4--4--|--4-----------4--4--4--2--|
--------------------------|-----0--0--0--------------|


  E  E  E  E  E  E  E  E    
--------------------------||
--------------------------||
--2--2--------------------||
--------2--2--2--0--0--0--||




Duration Legend
---------------
W - whole
H - half
Q - quarter
E - 8th
S - 16th
T - 32nd
X - 64th
. - note dotted
|-n-|  - n-tuplets


Tablature Legend
----------------
L - tied note
x - dead note
g - grace note
(n) - ghost note
> - accentuded note
NH - natural harmonic
AH - artificial harmonic
TH - tapped harmonic
SH - semi harmonic
PH - pitch harmonic
h - hammer on
p - pull off
b - bend
br - bendRelease
pb - preBend
pbr - preBendRelease
brb - bendReleaseBend
\n/ - tremolo bar dip
\n - tremolo bar dive
-/n - tremolo bar Release up
/n\ - tremolo bar inverted dip
/n - tremolo bar return
-\n - tremolo bar Release down
S - shift slide
s - legato slide
/ -  slide into from below or out of upwards
\ -  slide into from above or out of downwards
~ - vibrato
W - wide vibrato
tr - trill
TP - tremolo picking
T - tapping
S - slap
P - pop
< - fade in
^ - brush up
v - brush down
Suggest correction
Give kudos to tab author, rate the tab!
1 2 3 4 5
comments
print report bad tab
1 comment total.
0 reply
theroypan 73 Oct 03, 2013 01:02 PM

Notes are right... organization needs some work

guest
You may want to rate the tab now too:
select rating
Wanna post a correction for this tab? Suggest correction