Oops, an error
Loading. Please wait.

Black And White bass

version 1
version 1

Whole song

Interactive

439 views 1 this week
1 commentread comment
1 2 3 4 5
2 more votes to show rating
add to favorites
×
Save as Personal and add changes to this tab that will be seen only by you. Learn more ›
×
You can save this tab as Personal to edit and correct it or add notes. All changes will be seen only by you. Learn more »
launch autoscroll
font size
0
reset
guitar tuner
edit
Autoscroll
slow
fast
+/-
esc
set tempo
stop
Band: Deep Purple
Song: Black and White
Album: House Of The Blue Light





                             E  E  Q    E  E  S S S S    E  E  Q    Q    Q     
G||-------|-------|-------|--------2----------0---0---|--------2--------------|
D||-------|-------|-------|---------------------2---2-|-----------------------|
A||-------|-------|-------|--0--0-------0--0----------|--0--0-------3----2----|
E||-------|-------|-------|---------------------------|-----------------------|


  E  E  Q    E  E  S S S S    E  E  Q    Q    Q       E  E  Q    E  E  S S S S  
--------2----------0---0---|--------2--------------|--------2----------0---0---|
---------------------2---2-|-----------------------|---------------------2---2-|
--0--0-------0--0----------|--0--0-------3----2----|--0--0-------0--0----------|
---------------------------|-----------------------|---------------------------|


  E  E  Q    E  E  S S S S    E  E  Q    E  E  S S S S  
--------2----------0---0---|--------2----------0---0---|
---------------------2---2-|---------------------2---2-|
--0--0-------0--0----------|--0--0-------0--0----------|
---------------------------|---------------------------|


  E  E  Q    E  E  S S S S    E  E  Q    E  E  S S S S  
--------2----------0---0---|--------2----------0---0---|
---------------------2---2-|---------------------2---2-|
--0--0-------0--0----------|--0--0-------0--0----------|
---------------------------|---------------------------|


  E  E  Q    E  E  S S S S    E  E  Q    E  E  S S S S  
--------2----------0---0---|--------2----------0---0---|
---------------------2---2-|---------------------2---2-|
--0--0-------0--0----------|--0--0-------0--0----------|
---------------------------|---------------------------|


  E  E  Q    E  E  S S S S    E  E  Q    E  E  S S S S  
--------2----------0---0---|--------2----------0---0---|
---------------------2---2-|---------------------2---2-|
--0--0-------0--0----------|--0--0-------0--0----------|
---------------------------|---------------------------|


  E  E  Q    E  E  S S S S    E  E  Q    E  E  S S S S  
--------2----------0---0---|--------2----------0---0---|
---------------------2---2-|---------------------2---2-|
--0--0-------0--0----------|--0--0-------0--0----------|
---------------------------|---------------------------|


  E  E  Q    E  E  S S S S    E  E  Q    E  E  Q       E  E  Q    E  E  Q     
--------2----------0---0---|--------7---------------|--------5----------5----|
---------------------2---2-|-------------------8----|------------------------|
--0--0-------0--0----------|--5--5------------------|--3--3-------3--3-------|
---------------------------|-------------6--6-------|------------------------|


  E  E  Q    E  E  Q       E  E  Q    E  E  Q       E  E  Q    E  E  Q     
--------7---------------|------------------------|--------7---------------|
-------------------8----|--------5----------5----|-------------------8----|
--5--5------------------|------------------------|--5--5------------------|
-------------6--6-------|--3--3-------3--3-------|-------------6--6-------|


  E  E  Q    E  E  Q       E  E  Q    E  E  S S S S    E  E  Q    Q    Q     
------------------------|--------2----------0---0---|--------2--------------|
--------5----------2----|---------------------2---2-|-----------------------|
------------------------|--0--0-------0--0----------|--0--0-------3----2----|
--3--3-------0--0-------|---------------------------|-----------------------|


  E  E  Q    E  E  S S S S    E  E  Q    Q    Q       E  E  Q    E  E  S S S S  
--------2----------0---0---|--------2--------------|--------2----------0---0---|
---------------------2---2-|-----------------------|---------------------2---2-|
--0--0-------0--0----------|--0--0-------3----2----|--0--0-------0--0----------|
---------------------------|-----------------------|---------------------------|


  E  E  Q    E  E  S S S S    E  E  Q    E  E  S S S S  
--------2----------0---0---|--------2----------0---0---|
---------------------2---2-|---------------------2---2-|
--0--0-------0--0----------|--0--0-------0--0----------|
---------------------------|---------------------------|


  E  E  Q    E  E  S S S S    E  E  Q    E  E  S S S S  
--------2----------0---0---|--------2----------0---0---|
---------------------2---2-|---------------------2---2-|
--0--0-------0--0----------|--0--0-------0--0----------|
---------------------------|---------------------------|


  E  E  Q    E  E  S S S S    E  E  Q    E  E  S S S S  
--------2----------0---0---|--------2----------0---0---|
---------------------2---2-|---------------------2---2-|
--0--0-------0--0----------|--0--0-------0--0----------|
---------------------------|---------------------------|


  E  E  Q    E  E  S S S S    E  E  Q    E  E  S S S S  
--------2----------0---0---|--------2----------0---0---|
---------------------2---2-|---------------------2---2-|
--0--0-------0--0----------|--0--0-------0--0----------|
---------------------------|---------------------------|


  E  E  Q    E  E  S S S S    E  E  Q    E  E  S S S S  
--------2----------0---0---|--------2----------0---0---|
---------------------2---2-|---------------------2---2-|
--0--0-------0--0----------|--0--0-------0--0----------|
---------------------------|---------------------------|


  E  E  Q    E  E  S S S S    E  E  Q    E  E  Q       E  E  Q    E  E  Q     
--------2----------0---0---|--------7---------------|--------5----------5----|
---------------------2---2-|-------------------8----|------------------------|
--0--0-------0--0----------|--5--5------------------|--3--3-------3--3-------|
---------------------------|-------------6--6-------|------------------------|


  E  E  Q    E  E  Q       E  E  Q    E  E  Q       E  E  Q    E  E  Q     
--------7---------------|------------------------|--------7---------------|
-------------------8----|--------5----------5----|-------------------8----|
--5--5------------------|------------------------|--5--5------------------|
-------------6--6-------|--3--3-------3--3-------|-------------6--6-------|


  E  E  Q    E  E  Q       E  E  Q    E  E  S S S S    E  E  Q    Q    Q     
------------------------|--------2----------0---0---|--------2--------------|
--------5----------2----|---------------------2---2-|-----------------------|
------------------------|--0--0-------0--0----------|--0--0-------3----2----|
--3--3-------0--0-------|---------------------------|-----------------------|


  E  E  Q    E  E  S S S S    E  E  Q    Q    Q     
--------2----------0---0---|--------2--------------|
---------------------2---2-|-----------------------|
--0--0-------0--0----------|--0--0-------3----2----|
---------------------------|-----------------------|


  S S S S S E.  S S S S S S E     S S S S S E.  S S S S Q     
-------------------------------|-----------------------------|
-------------------------------|-----------------------------|
--6-5-3-5---3-----------5-3----|--6-5-3-5---3---------3------|
----------------0-3-5-5-----5--|----------------0-3-5---5----|


  S S S S S E.  S S S S S S E     S S S S S S E  Q    Q     
-------------------------------|---------------------------|
-------------------------------|---------------------------|
--6-5-3-5---3-----------5-3----|----------5-3----3----5----|
----------------0-3-5-5-----5--|--3-0-3-0-----5------------|


  E  E  E  E  E  E  E  E     E  E  E  E  E  E  E  E   
--------------------------|--------------------------|
--------------------------|--------------------------|
--------------------------|--------------------------|
--3--3--3--3--3--3--3--3--|--3--3--3--3--3--3--3--3--|


  E  E  E  E  E  E  E  E     E  E  E  E  E  E  E  E   
--------------------------|--------------------------|
--------------------------|--------------------------|
--------------------------|--------------------3--5--|
--3--3--3--3--3--3--3--3--|--3--3--3--3--3--6--------|


  E  E  E  E  E  E  E  S S    E  E  E  E  E  E  E.  S  
---------------------------|--------------------------|
--2--2--2--2--2--2--2--0-1-|--2--2--2--2--2--2--2---0-|
---------------------------|--------------------------|
---------------------------|--------------------------|


  E  E  E  E  E  E  E  S S    E  E  E  E  S S E  E  E     E  Q.     H         
---------------------------|---------------------------|---------------------|
--2--2--2--2--2--2--2--2-2-|--2--2--2--2--2-0----------|---------------------|
---------------------------|------------------2--0-----|---------------------|
---------------------------|------------------------3--|--0------------------|


  E  E  Q    E  E  S S S S    E  E  Q    E  E  S S S S  
--------2----------0---0---|--------2----------0---0---|
---------------------2---2-|---------------------2---2-|
--0--0-------0--0----------|--0--0-------0--0----------|
---------------------------|---------------------------|


  E  E  Q    E  E  S S S S    E  E  Q    E  E  S S S S  
--------2----------0---0---|--------2----------0---0---|
---------------------2---2-|---------------------2---2-|
--0--0-------0--0----------|--0--0-------0--0----------|
---------------------------|---------------------------|


  E  E  Q    E  E  S S S S    E  E  Q    E  E  S S S S  
--------2----------0---0---|--------2----------0---0---|
---------------------2---2-|---------------------2---2-|
--0--0-------0--0----------|--0--0-------0--0----------|
---------------------------|---------------------------|


  E  E  Q    E  E  S S S S    E  E  Q    E  E  S S S S  
--------2----------0---0---|--------2----------0---0---|
---------------------2---2-|---------------------2---2-|
--0--0-------0--0----------|--0--0-------0--0----------|
---------------------------|---------------------------|


  E  E  Q    E  E  S S S S    E  E  Q    E  E  S S S S  
--------2----------0---0---|--------2----------0---0---|
---------------------2---2-|---------------------2---2-|
--0--0-------0--0----------|--0--0-------0--0----------|
---------------------------|---------------------------|


  E  E  Q    E  E  S S S S    E  E  Q    E  E  S S S S  
--------2----------0---0---|--------2----------0---0---|
---------------------2---2-|---------------------2---2-|
--0--0-------0--0----------|--0--0-------0--0----------|
---------------------------|---------------------------|


  E  E  Q    E  E  Q       E  E  Q    E  E  Q       E  E  Q    E  E  Q     
--------7---------------|--------5----------5----|--------7---------------|
-------------------8----|------------------------|-------------------8----|
--5--5------------------|--3--3-------3--3-------|--5--5------------------|
-------------6--6-------|------------------------|-------------6--6-------|


  E  E  Q    E  E  Q       E  E  Q    E  E  Q       E  E  Q    E  E  Q     
------------------------|--------7---------------|------------------------|
--------5----------5----|-------------------8----|--------5----------2----|
------------------------|--5--5------------------|------------------------|
--3--3-------3--3-------|-------------6--6-------|--3--3-------0--0-------|


  E  E  Q    E  E  S S S S    E  E  Q    Q    Q       E  E  Q    E  E  S S S S  
--------2----------0---0---|--------2--------------|--------2----------0---0---|
---------------------2---2-|-----------------------|---------------------2---2-|
--0--0-------0--0----------|--0--0-------3----2----|--0--0-------0--0----------|
---------------------------|-----------------------|---------------------------|


  E  E  Q    Q    Q       E  E  Q    E  E  Q       E  E  Q    E  E  Q     
--------2--------------|--------7---------------|--------5----------5----|
-----------------------|-------------------8----|------------------------|
--0--0-------3----2----|--5--5------------------|--3--3-------3--3-------|
-----------------------|-------------6--6-------|------------------------|


  E  E  Q    E  E  Q       E  E  Q    E  E  Q       E  E  Q    E  E  Q     
--------7---------------|------------------------|--------7---------------|
-------------------8----|--------5----------5----|-------------------8----|
--5--5------------------|------------------------|--5--5------------------|
-------------6--6-------|--3--3-------3--3-------|-------------6--6-------|


  E  E  Q    E  E  Q       E  E  Q    E  E  S S S S  
------------------------|--------2----------0---0---|
--------5----------2----|---------------------2---2-|
------------------------|--0--0-------0--0----------|
--3--3-------0--0-------|---------------------------|


  E  E  Q    E  E  S S S S    E  E  Q    E  E  S S S S  
--------2----------0---0---|--------2----------0---0---|
---------------------2---2-|---------------------2---2-|
--0--0-------0--0----------|--0--0-------0--0----------|
---------------------------|---------------------------|


  E  E  Q    E  E  S S S S    E  E  Q    E  E  S S S S  
--------2----------0---0---|--------2----------0---0---|
---------------------2---2-|---------------------2---2-|
--0--0-------0--0----------|--0--0-------0--0----------|
---------------------------|---------------------------|


  E  E  Q    E  E  S S S S    E  E  Q    E  E  S S S S  
--------2----------0---0---|--------2----------0---0---|
---------------------2---2-|---------------------2---2-|
--0--0-------0--0----------|--0--0-------0--0----------|
---------------------------|---------------------------|


  E  E  Q    E  E  S S S S    E  E  Q    E  E  S S S S  
--------2----------0---0---|--------2----------0---0---|
---------------------2---2-|---------------------2---2-|
--0--0-------0--0----------|--0--0-------0--0----------|
---------------------------|---------------------------|


  E  E  Q    E  E  S S S S    E  E  Q    E  E  S S S S  
--------2----------0---0---|--------2----------0---0---|
---------------------2---2-|---------------------2---2-|
--0--0-------0--0----------|--0--0-------0--0----------|
---------------------------|---------------------------|


  E  E  Q    E  E  E  E     E  E  Q    E  E  S S S S  
--------2----------------|--------2----------0---0---|
-------------------------|---------------------2---2-|
--0--0-------0--3--2--1--|--0--0-------0--0----------|
-------------------------|---------------------------|


  E  E  Q    E  E  S S S S    E  E  Q    E  E  S S S S  
--------2----------0---0---|--------2----------0---0---|
---------------------2---2-|---------------------2---2-|
--0--0-------0--0----------|--0--0-------0--0----------|
---------------------------|---------------------------|


  E  E  Q    E  E  S S S S   
--------2----------0---0---||
---------------------2---2-||
--0--0-------0--0----------||
---------------------------||




Duration Legend
---------------
W - whole
H - half
Q - quarter
E - 8th
S - 16th
T - 32nd
X - 64th
. - note dotted
|-n-|  - n-tuplets


Tablature Legend
----------------
L - tied note
x - dead note
g - grace note
(n) - ghost note
> - accentuded note
NH - natural harmonic
AH - artificial harmonic
TH - tapped harmonic
SH - semi harmonic
PH - pitch harmonic
h - hammer on
p - pull off
b - bend
br - bendRelease
pb - preBend
pbr - preBendRelease
brb - bendReleaseBend
\n/ - tremolo bar dip
\n - tremolo bar dive
-/n - tremolo bar Release up
/n\ - tremolo bar inverted dip
/n - tremolo bar return
-\n - tremolo bar Release down
S - shift slide
s - legato slide
/ -  slide into from below or out of upwards
\ -  slide into from above or out of downwards
~ - vibrato
W - wide vibrato
tr - trill
TP - tremolo picking
T - tapping
S - slap
P - pop
< - fade in
^ - brush up
v - brush down

            
            
Suggest correction
Creating personal tab
Creating personal tab
You can edit any tab online and save it as your Personal.

You can edit, replace or remove any tab part or add personal notes – all changes will be seen only by you.

Personal tabs can be accessed anytime from any device, even offline.
Learn more »
Give kudos to tab author, rate the tab!
1 2 3 4 5
comments
print report bad tab
1 comment total.
0 reply
theroypan 73 Oct 03, 2013 09:15 AM

Great tab! Not sure how he plays it but its less slopppy if you play the G in the main riff on the D string

guest
Wanna post a correction for this tab? Suggest correction