Oops, an error
Loading. Please wait.

Black Night Bass Tab

version 1
version 1

Whole song

57,409 views 69 this week
5 commentsread comments
1 2 3 4 5
excellent!
x 14
add to favorites
launch autoscroll
font size
0
reset
guitar tuner
Autoscroll
slow
fast
+/-
esc
set tempo
stop
Help us to improve Ultimate-Guitar.com Take our survey!
×
Riff #1

G|-------|----------------------------|------------------|------------------|
D|-------|----5-----------5---7-5-----|------------------|-5----------------|
A|-------|--7---7-5---5-7---7-----7---|-5-7--------------|---7--------------|
E|-------|----------7-----------------|------------------|------------------|

This riff is repeated twice before every verse


Riff #2

G|-------|----------------------------|-
D|-------|----------------------------|-  X   Many
A|-------|---5-7-7-7-7-7-7-7----------|-  X   Times
E|-------|----------------------------|-

The first three lines of the verse are sung over this riff


Riff #3

           Maybe I'll find on the way down the line
G|-------|--------------------------------------------------------|
D|-------|------------------------4-------------------------------|
A|-------|--7--5-------5------5--------7---5----7-----------------|
E|-------|--------7--------7--------------------------------------|


           that I'm free, free to be me.                               (x2)
G|-------|------------------------------|---|--------------------------|---|
D|-------|------------------------------|-*-|--------------------------|-*-|
A|-------|-5----------------------------|-*-|-5-7-7-7-7-7-7-7----------|-*-|
E|-------|-------7---5--3---------------|---|--------------------------|---|


          Black night is a long way from home.
G|-------|------------------------------------------|
D|-------|------------------------------------------|
A|-------|------------------------------------------|
E|-------|--5-5-5-5-5-5-5---3-3-3-3-3-----7--7--7---|

This is played over the last three lines as I have tryed to show

The Lyrics to this song is presented below in case you'll need them


[Chorus]

Black night is not right,
I don't feel so bright,
I don't care to sit tight.
Maybe I'll find on the way down the line
that I'm free, free to be me.
Black night is a long way from home.


[Verse]

I don't need a dark tree,
I don't want a rough sea,
I can't feel, I can't see.
Maybe I'll find on the way down the line
that I'm free, free to be me.
Black night is a long way from home.


[Chorus]

Black night, black night,
I don't need black night,
I can't see dark night.
Maybe I'll find on the way down the line
that I'm free, free to be me.
Black night is a long way from home.
comments
print report bad tab
5 comments total. Showing first comments.
0 reply
Delboy_360 88 wrote on September 1 2007, 06:40 am

Amazing tab, nice work. 5*

0 reply
pissanga 32 wrote on April 27 2008, 03:39 pm

when I listen to the music I hear something one octave lower at the

5-7-7-7-7-7-7-7

part, but I don't know if it's Jon or Glover. Anyway, I like to play on octave lower in my 5-string bass.

And very good tab!

0 reply
Lemurs4mangos 2,243 wrote on February 7 2009, 08:55 am

The intro part That 7 on D, and the first note the 7 on A, I think you should do a hammer-on from 5, It sounds like thats that they do. So it'd be like:

|--------------------------------|
|------5-----------5---5h7-5-----|
|--5h7---7-5---5-7---7-------7---|
|------------7-------------------|

Other than that GREAT TAB 5*'s!

I want to post or [tab]
guest
You may want to rate the tab now too:
select rating
Please do not post tabs as comments. Select "correction" instead!