Oops, an error
Loading. Please wait.
We have Chord Pro version of Black Night.
It's the closest thing you can get to the original song and it has interactive parts. Check out the tab »
×
82,003 views 150 this week
1 commentread comment
1 2 3 4 5
x 12
add to favorites
launch autoscroll
font size
0
reset
transpose
0
reset
display chords
guitar tuner
backing track
0:00
0:00
Autoscroll
slow
fast
+/-
esc
set tempo
stop
Tuning
E A D G B E
Strumming
There is no strumming pattern for this song yet. and get +5 IQ
Riff 1:
                e -----------------------------------|
                B -----------------------------------|
                G -----------------------------------|
                D ---5-----------5---7-5---------5---|  x 2
                A -7---7-5---5-7---7-----7--5-7----7-|
                E ---------7-------------------------|


Verse:
                e -----------------------------------|
                B -----------------------------------|
                G -----------------------------------|
                D -----------------------------------|
                A -5--7-7--7-7--7-7--7---------------|
                E -----------------------------------|


Riff 2:         
                e -----------------------------------|
                B -----------------------------------|
                G -----------------------------------|
                D -----------------------------------|
                A -7-5---5---5-9-7-5-7-5-------------|
                E -----7---7-------------7-5---------|


[Intro:]
[Riff 1]

Black night is not right
I don't feel so bright
I don't care to sit tight
[Riff 2]Maybe I'll find on the way down the line that I'm [A]free
[G]Free to be [E]me
[A]Black night is a [G]long way from [B]home

[Riff 1]

I don't need a dark tree
I don't want a rough sea
I can't feel, I can't see
[Riff 2]Maybe I'll find on the way down the line that I'm [A]free
[G]Free to be [E]me
[A]Black night is a [G]long way from [B]home


[Break:]
[Verse]         x 12
[Riff 2]
[Verse in G A]  x 12
[Riff 1]


Black night, black night
I don't need black night
I can't see dark light
[Riff 2]Maybe I'll find on the way down the line that I'm [A]free
[G]Free to be [E]me
[A]Black night is a [G]long way from [B]home


[Outro]
[Verse]         x15 (fading from 10)
Suggest correction
comments
print report bad tab
1 comment total.
+1 reply
rocker007 74 Feb 02, 2006 07:45 AM

this works

guest
You may want to rate the tab now too:
select rating
Wanna post a correction for this tab? Suggest correction