Oops, an error
Loading. Please wait.

Black Night Chords

version 1
version 1

Whole song

75,781 views 198 this week
1 commentread comment
1 2 3 4 5
excellent!
x 8
add to favorites
launch autoscroll
font size
0
reset
transpose
0
reset
display chords
guitar tuner
Autoscroll
slow
fast
+/-
esc
set tempo
stop
Help us to improve Ultimate-Guitar.com Take our survey!
×
Riff 1:
                e -----------------------------------|
                B -----------------------------------|
                G -----------------------------------|
                D ---5-----------5---7-5---------5---|  x 2
                A -7---7-5---7-5---7-----7--5-7----7-|
                E ---------7-------------------------|


Verse:
                e -----------------------------------|
                B -----------------------------------|
                G -----------------------------------|
                D -----------------------------------|
                A -5--7-7--7-7--7-7--7---------------|
                E -----------------------------------|


Riff 2:         
                e -----------------------------------|
                B -----------------------------------|
                G -----------------------------------|
                D -----------------------------------|
                A -7-5---5---5-9-7-5-7-5-------------|
                E -----7---7-------------7-5---------|


[Intro:]
[Riff 1]

Black night is not right
I don't feel so bright
I don't care to sit tight
[Riff 2]Maybe I'll find on the way down the line that I'm [A]free
[G]Free to be [E]me
[A]Black night is a [G]long way from [B]home

[Riff 1]

I don't need a dark tree
I don't want a rough sea
I can't feel, I can't see
[Riff 2]Maybe I'll find on the way down the line that I'm [A]free
[G]Free to be [E]me
[A]Black night is a [G]long way from [B]home


[Break:]
[Verse]         x 12
[Riff 2]
[Verse in G A]  x 12
[Riff 1]


Black night, black night
I don't need black night
I can't see dark light
[Riff 2]Maybe I'll find on the way down the line that I'm [A]free
[G]Free to be [E]me
[A]Black night is a [G]long way from [B]home


[Outro]
[Verse]         x15 (fading from 10)
Suggest correction
comments
print report bad tab
1 comment total.
+1 reply
rocker007 64 wrote on February 2 2006, 12:45 pm

this works

guest
You may want to rate the tab now too:
select rating
Wanna post a correction for this tab? Suggest correction