Oops, an error
Loading. Please wait.

Burn Tab

version 1
version 1

Solo

Whole song

Interactive

8,547 views 57 this week
1 commentread comment
1 2 3 4 5
please rate
add to favorites
launch autoscroll
font size
0
reset
how to read this tab
guitar tuner
Autoscroll
slow
fast
+/-
esc
set tempo
stop
Help us to improve Ultimate-Guitar.com Take our survey!
×
Author
Difficulty
advanced
Deep Purple - Burn, Guitar Solo

e|-----------------------------------------------------------------|
B|-----------------------------------------------------------------|
G|--3b(4)---------3------------------------------------------------|
D|--------5----------5--3--5------5--3h5p3h5p3---3s-2-0-2h3p2h3-4-5|
A|---------------------------------------------5-------------------|
E|-----------------------------------------------------------------|

e|---------------------------------------------------------------|
B|---------------------------------------------------------------|
G|-3-----5b(7)---------------5--3--5h6p5p3-----3h5p3---3h5p3-----|
D|---5~~ -----------------------------------5--------5-----------|
A|---------------------------------------------------------------|
E|---------------------------------------------------------------|

e|---------------------------------------------3---------3--------|
B|--------------------------------------------3---6b(8)-3--3------|
G|----3h5p3---3h5p3---3h5p3---3h5p3-----5b(6)---------------5b(7)-|
D|--5--------5-------5-------5------------------------------------|
A|----------------------------------------------------------------|
E|----------------------------------------------------------------|

e|-3--------------------------------------------------------------|
B|----------------------------------------------------------------|
G|----6p5p3---3h5p3---3h5p3--3~~~~--------------------------------|
D|----------5-------5---------------------------------------------|
A|----------------------------------------------------------------|
E|----------------------------------------------------------------|

e|---------------------------------------------------------------|
B|---6h8p6---6h8p6---6h8p6---6h8p6---6h8p6---6h8p6---------------|
G|---------7-------7-------7-------7-------7-------7-------------|
D|---------------------------------------------------------------|
A|---------------------------------------------------------------|
E|---------------------------------------------------------------|

e|------6--------------------------------------------------------|
B|--6h7---8---6h7h8-6~~~~~---------------------------------------|
G|---------------------------------------------------------------|
D|---------------------------------------------------------------|
A|---------------------------------------------------------------|
E|---------------------------------------------------------------|

e|---------------------------------------------------------------|
B|---------------------------------------------------------------|
G|---12-15-0-0-10-12-0-0-12-15-0-0-10-12-0-0-12-15-0-0-10-12-0-0-|
D|---------------------------------------------------------------|
A|---------------------------------------------------------------|
E|---------------------------------------------------------------|

e|---------------------------------------------------------------|
B|---------------------------------------------------------------|
G|--12-15-0-0-10-12-0-0-12-15-0-0-10-12-0-0-12-15-0-0-10-12-0-0--|
D|---------------------------------------------------------------|
A|---------------------------------------------------------------|
E|---------------------------------------------------------------|

e|---------------------------------------------------------------|
B|---------------------------------------------------------------|
G|--12-15-0-0-10-12-0-0-8-10-0-0-10-12-0-0-12-15-0-0-10-12-0-0---|
D|---------------------------------------------------------------|
A|---------------------------------------------------------------|
E|---------------------------------------------------------------|

e|------------------------------------------------------------------|
B|------------------------------------------------------------------|
G|--8-10-8-0-0-7-8-7-0-0-5-7-5-0-0-3--0-5b(7-(7)-(7)-(7)--5r--------|
D|------------------------------------------------------------------|
A|------------------------------------------------------------------|
E|------------------------------------------------------------------|

e|---------------------------------------------------------------|
B|---------------------------------------------------------------|
G|--3-2h3p2-0---------------------3-----3--5b(7)~~~~-------------|
D|------------3--0-2h3p2-3--4--5-----5---------------------------|
A|---------------------------------------------------------------|
E|---------------------------------------------------------------|

Now for the triplet section, do not overplay this, as it is strenuous on the hands.
e|---8p5---8p5---8p5--10p6---10p6---10p6----|
B|-------6-----6-----------6------6---------|
G|------------------------------------------|
D|------------------------------------------|
A|------------------------------------------|
E|------------------------------------------|

e|---6p3---6p3---6p3---8p3---8p3---8p3----|
B|-------4-----4-----------5-----5--------|
G|----------------------------------------|
D|----------------------------------------|
A|----------------------------------------|
E|----------------------------------------|

e|---5p2---2-3p2----2--4h5p3---3-5p3------|
B|-------3--------3----------3------------|
G|----------------------------------------|
D|----------------------------------------|
A|----------------------------------------|
E|----------------------------------------|

e|--10p6---10p6---10p6--10s11p8---8h11p8---8h11--|
B|-------8------8---------------8--------8-------|
G|-----------------------------------------------|
D|-----------------------------------------------|
A|-----------------------------------------------|
E|-----------------------------------------------|

e|--8p5---8p5---8p5---10p6---10p6---10p6-----|
B|------6-----6------------6------6----------|
G|-------------------------------------------|
D|-------------------------------------------|
A|-------------------------------------------|
E|-------------------------------------------|

e|---5p2---2-3p2----2--4h5p3---3-5p3--|
B|-------3--------3----------3--------|
G|------------------------------------|
D|------------------------------------|
A|------------------------------------|
E|------------------------------------|X2

e|---10p6---6---11p8---8---10p6---6---11p8---8------x----x----x----x--------|
B|--------8---------8---------8--------8---------10-x-11-x-12-x-13-x-14--14-|
G|--------------------------------------------------x----x----x----x--------|
D|--------------------------------------------------------------------------|
A|--------------------------------------------------------------------------|
E|--------------------------------------------------------------------------|

End of Solo
This is my first tab, so don't be too harsh on it!
Suggest correction
What's this?
You can suggest a correction to this tab. Community and Mods will review your correction and vote to approve or reject it.
comments
We did not receive enough feedback on this tab! Please rate:
print report bad tab
1 2 3 4 5
1 comment total.
0 reply
WIL_SON 11 wrote on October 21 2015, 02:48 pm

amazingly accurate. Gonna take a bit of work to learn though!

guest
You may want to rate the tab now too:
select rating
Please do not post tabs as comments. Select "correction" instead!