Oops, an error
Loading. Please wait.

Burn Bass Tab

version 2
version 2

Whole song

10,322 views 123 this week
no commentswrite comment
1 2 3 4 5
excellent!
x 4
add to favorites
launch autoscroll
font size
0
reset
guitar tuner
Tab Pro tools
  • play this tab
  • loop segment
  • change instrument
  • show fretboard
  • metronome
Autoscroll
slow
fast
+/-
esc
set tempo
stop
Difficulty
intermediate

DEEP PURPLE - BURN
bass tab

It's my first tab, so probably it's not perfect, but it's quite faithful to
the original bass line. Enjoy!

Standard tuning EADG

INTRO

G------------|----------------------------|
D------------|--------------------17------|
A------------|----------------------------|
E------------|----3333-------/15----------|

MAIN RIFF

G----------------------------------------|
D----------------------------------------|
A----------------------------------------|   X 2
E--3-333-33-3-333-0123-333-33-3-33-1-11--|

VERSE 1

G---------------------------------------------------------------------------|
D----5--3------55--3-------5--3------55--3--------5--3-------55--3----------|
A----------5----------5----------5----------5-----------5----------5-3/5/6/-|
E--3---------3-----------3---------3------------3----------3----------------|

MAIN RIFF

VERSE 2

G---------------------------------------------------------------------------|
D----5--3------55--3-------5--3------55--3--------5--3-------55--3----------|
A--------5----------5----------5----------5-----------5-----------5-1----3/-|
E--3---------3-----------3---------3------------3----------3----------1-----|

CHORUS

G----------------/10/8/7-----------------|
D------5/7/8-----------------------------|
A-------------6-----------3-33---3-1-----|
E--3---------------------------3------3--|

RIFF INTRO
MAIN RIFF

VERSE 3

G---------------------------------------------------------------------------|
D----5--3------55--3-------5--3------55--3--------5--3-------55--3----------|
A--------5----------5----------5----------5-----------5-----------5---------|
E--3---------3-----------3---------3------------3----------3-----------3/15-|

MAIN RIFF

VERSE 4

G---------------------------------------------------------------------------|
D----5--3------55--3-------5--3------55--3--------5--3-------55--3----------|
A--------5----------5----------5----------5-----------5-----------5-1---3/--|
E--3---------3-----------3---------3------------3----------3----------1-----|

CHORUS
RIFF INTRO
MAIN RIFF

BRIDGE

G----------------------------------------------------------------|
D----------------------------------------------77--5------7--5---|
A--5-555-555-555-5--1-111-111-111-/3-5-8-7-----------7---------7-|
E-------------------------------------------5----------5---------|

G---------------------------------------------------------------|
D---------------------------------------------------------------|
A--1-111-111-111--5-555-555-555--345-5--5--5--5--5--5--5--5-----|
E------------------------------------------------------------3--|

RIFF INTRO
MAIN RIFF

SOLO 1
                                  
G-|-------------------------|     |-------------------|
D-|----55--3-------5--3-----|     |-------------------|
A-|----------5----------5---|X 3  |-333-333-333-33----|
E-|-3-----------3---------3-|     |----------------6--|

G------------------3---------------------------------------------|
D-----55--3------55-5-3-------55--3-------55--3------------------|
A-----------5-----------5-----------5-----------5--333-333-333---|
E--3----------3------------3-----------3-----------------------6-|

G---------------------------------------------------------------------------|
D---55-3----55-3------------------------------------------------------------|
A-------5-------5-6-666-666-66-5------------5-6-666-666-666-6-5-55555555555-|
E-3-------3---------------------3-333-333-33--------------------------------|

G-|---------------------------------------------------------------|
D-|-3--5-5--3--------3--3-----------------------------------------|
A-|-----------6-66-6------6-5--5-55-6--6-5-3--3-33-5555555555555--|   X 2
E-|---------------------------------------------------------------|

G------------------------------------------------------------------|
D-------------------------------------------------------3----------|
A--5-555-555-555-234-5-555-555-555-555-----3-----3--5-3---5-3-5----|
E---------------------------------------3-----3-----------------3--|

RIFF INTRO X 2
MAIN RIFF X 2
BRIDGE

SOLO 2                                                          _
                                                                 |
G-|---------------|    |------|   |---------------|    |-------| |
D-|----55--3------|    |------|   |----55--3------|    |-------| |
A-|----------5----| X3 |------|   |----------5----| X3 |---3-5-| |REPEAT 
E-|-3-----------3-|    |-0123-|   |-3-----------3-|    |-6-----| |TWICE 
                                                                _| 
                                                                    _ 
G--------------------------------------------------------------|     |
D--------------------------------------------------------------|     |
A--5-55-555-55-034-5-55-555-55-034-5-55-555-55-034-5-55-555-55-|     |
E--------------------------------------------------------------|     |
                                                                     |REPEAT 
G----------------------------------------------------------------|   |TWICE
D--034-5--5-3----------3--3--------------------------------------|   |
A-------------6--6-666------6-5--5-55-6--6-5-3--3-33/55555555555-|   |
E----------------------------------------------------------------|  _|

G-----------------------------------------------|
D-----------------------------------------------|
A--234-555555555------3-3-----3-3-555555555-----|
E-----------------3-3-----3-3---------------03--|

RIFF INTRO (no bass)
MAIN RIFF

VERSE 5
 
G---------------------------------------------------------------------------|
D----5--3------55--3-------5--3------55--3--------5--3-------55--3----------|
A----------5----------5----------5----------5-----------5----------5-3/5/6/-|
E--3---------3-----------3---------3------------3----------3----------------|
                                                                   
MAIN RIFF

VERSE 6
G---------------------------------------------------------------------------|
D----5--3------55--3-------5--3------55--3--------5--3-------55--3----------|
A--------5----------5----------5----------5-----------5-----------5--1----3-|
E--3---------3-----------3---------3------------3----------3-----------1----|

CHORUS
RIFF INTRO (no bass)
MAIN RIFF

OUTRO

G------------------8-7-------8-7------|-----|
D---------------------------------5---|-----|
A--------3-1--6-5-------6-5-----------|-----|
E--3-1--------------------------------|--3--|

Tabbed by Fly
comments
print report bad tab
I want to post or [tab]
guest
You may want to rate the tab now too:
select rating
Please do not post tabs as comments. Select "correction" instead!