Oops, an error
Loading. Please wait.

Clearly Quite Absurd Bass Tab

version 1
version 1

Whole song

Interactive

395 views 1 this week
no commentswrite comment
1 2 3 4 5
please rate
add to favorites
launch autoscroll
font size
0
reset
guitar tuner
Tab Pro tools
  • play this tab
  • loop segment
  • change instrument
  • show fretboard
  • metronome
Autoscroll
slow
fast
+/-
esc
set tempo
stop
Band: Deep Purple
Song: Clearly Quite Absurd


     H           H        Q    Q       Q    Q    Q.     S S  
G||-----------|-----------0----2----|-------0-----------7-6-|
D||-----------|---------------------|--4---------2----------|
A||-----------|--2------------------|-----------------------|
E||-----------|---------------------|-----------------------|


  H        Q    Q       Q    Q    H           H        E.  S Q     
--4-------------2----|-------0----7--------|---------------4-2----|
-----------5---------|--4------------------|----------------------|
---------------------|---------------------|----------------------|
---------------------|---------------------|--7--------3----------|


  Q    Q    Q.     S S    H        Q    Q       Q    Q    H         
-------0-------------4-|-----------4----2----|-------0----7--------|
--4---------2------L---|---------------------|--4------------------|
-----------------------|--2------------------|---------------------|
-----------------------|---------------------|---------------------|


  H        E.  S Q       Q    Q    Q.     S S    H        E  E  Q     
---------------4-2----|-------0---------------|--------------0--2----|
----------------------|--4---------2------0---|----------------------|
----------------------|---------------------4-|--2--------L----------|
--7--------3----------|-----------------------|----------------------|


  Q    Q    S S S S E  E     H        Q    Q       H        E  S S Q     
-------0----7-7---7-------|---------------------|--------------0--------|
--4-------------7---4-----|---------------------|----------------4-2----|
-----------------------5--|-----------2---------|-----------------------|
--------------------------|--5-------------2----|--3--------3-----------|


  Q.     S S Q    Q       E  E  E  E  E  E  E  E     Q    S S S S Q    Q     
-----------------------|-----------------------0--|--2----L-----2-4----0----|
-----------------------|--------------0--2--4-----|---------2-4-------------|
--0------0-0-2---------|-----0--2--4--------------|-------------------------|
------------------2----|--3-----------------------|-------------------------|


  W                   H           H           Q    Q    Q    Q     
-------------------|-----------|-----------|-----------------2----|
--2----------------|-----------|-----------|----------------------|
-------------------|--3--------|-----------|--2----2--------------|
-------------------|-----------|--2--------|------------3---------|


  Q    Q    Q.     S S    H        Q    Q       Q    Q    H         
-------0-----------7-6-|--4-------------2----|-------0----7--------|
--4---------2----------|-----------5---------|--4------------------|
-----------------------|---------------------|---------------------|
-----------------------|---------------------|---------------------|


  H        E.  S Q       Q    Q    Q.     S S    H        Q    Q     
---------------4-2----|-------0-------------4-|-----------4----2----|
----------------------|--4---------2------L---|---------------------|
----------------------|-----------------------|--2------------------|
--7--------3----------|-----------------------|---------------------|


  Q    Q    H           H        E.  S Q       Q    Q    Q.     S S  
-------0----7--------|---------------4-2----|-------0---------------|
--4------------------|----------------------|--4---------2------0---|
---------------------|----------------------|---------------------4-|
---------------------|--7--------3----------|-----------------------|


  H        E  E  Q       Q    Q    S S S S E  E     H        Q    Q     
--------------0--2----|-------0----7-7---7-------|---------------------|
----------------------|--4-------------7---4-----|---------------------|
--2--------L----------|-----------------------5--|-----------2---------|
----------------------|--------------------------|--5-------------2----|


  H        E  S S Q       Q.     S S Q    Q       E  E  E  E  E  E  E  E   
--------------0--------|-----------------------|-----------------------0--|
----------------4-2----|-----------------------|--------------0--2--4-----|
-----------------------|--0------0-0-2---------|-----0--2--4--------------|
--3--------3-----------|------------------2----|--3-----------------------|


  Q    S S S S Q    Q       W                   H           H         
--2----L-----2-4----0----|-------------------|-----------|-----------|
---------2-4-------------|--2----------------|-----------|-----------|
-------------------------|-------------------|--3--------|-----------|
-------------------------|-------------------|-----------|--2--------|


  Q    Q    Q    Q       Q    Q    Q    Q       Q    Q    Q    Q     
----------------------|----------------------|--0--------------2----|
------------0----2----|-------0----2----4----|-------4----2---------|
--2----4--------------|--3-------------------|----------------------|
----------------------|----------------------|----------------------|


  Q    Q    Q    Q       Q    Q    Q    Q       Q    Q    Q    Q     
------------0---------|----------------------|----------------------|
--0--------------4----|------------0----2----|-------0----2----4----|
-------4--------------|--2----4--------------|--3-------------------|
----------------------|----------------------|----------------------|


  Q    Q    Q    Q       Q    Q    Q    Q       H        Q    Q     
--0--------------2----|----------------------|---------------------|
-------4----2---------|--0-------------------|---------------------|
----------------------|-------4--------------|--0--------2---------|
----------------------|------------3----0----|----------------2----|


  Q    Q    S S S S Q       H        Q    Q       E  E  E  E  E  E  E  E   
----------------0--------|---------------------|-----------------------0--|
--------------0---4-2----|---------------------|--------------0--2--4-----|
-------------------------|--0--------2---------|-----0--2--4--------------|
--3----3----3------------|----------------2----|--3-----------------------|


  Q    S S S S Q    Q       H        E  S S E.  S    H           H         
--2----L-2---2-4----0----|------------------------|-----------|-----------|
-----------2-------------|--2--------L--2---2---0-|-----------|-----------|
-------------------------|----------------2-------|--3--------|-----------|
-------------------------|------------------------|-----------|--2--------|


  Q    Q    E  S S Q       Q    Q    E.  S Q       H        Q    Q     
--4----4----7--6-7------|------------9----------|-----------0---------|
-------------------7----|--4----5--------9------|--9-------------7----|
------------------------|------------------7----|---------------------|
------------------------|-----------------------|---------------------|


  Q    Q    E.  S E  E     Q    Q    S S E  Q       Q    Q    E.  S E  E   
-------0----7-----------|--------------4----2----|-------0--------4-------|
--4-------------7-0--7--|----------------4-------|--4---------2-----2--0--|
------------------------|------------------------|------------------------|
------------------------|--7----7----------------|------------------------|


  Q    Q    E  S S Q       Q    Q       W                   H         
-----------------4-2----|-------0----|-------------------|-----------|
---------------4--------|--4---------|-------------------|-----------|
--2----2----------------|------------|-------------------|-----------|
------------------------|------------|--2----------------|--L--------|


  Q    Q    Q    Q       Q    Q    Q    Q       Q    Q    Q    Q     
----------------------|----------------------|--0--------------2----|
------------0----2----|-------0----2----4----|-------4----2---------|
--2----4--------------|--3-------------------|----------------------|
----------------------|----------------------|----------------------|


  Q    Q    Q    Q       Q    Q    Q    Q       Q    Q    Q    Q     
------------0---------|----------------------|----------------------|
--0--------------4----|------------0----2----|-------0----2----4----|
-------4--------------|--2----4--------------|--3-------------------|
----------------------|----------------------|----------------------|


  Q    Q    Q    Q       Q    Q    Q    Q       Q    Q    Q    Q     
--0--------------2----|------------0---------|----------------------|
-------4----2---------|--0--------------4----|------------0----2----|
----------------------|-------4--------------|--2----4--------------|
----------------------|----------------------|----------------------|


  Q    Q    Q    Q       Q    Q    Q    Q       Q    Q    Q    Q     
----------------------|--0--------------2----|------------0---------|
-------0----2----4----|-------4----2---------|--0--------------4----|
--3-------------------|----------------------|-------4--------------|
----------------------|----------------------|----------------------|


  Q    Q    Q    Q       Q    Q    Q    Q       Q    Q    Q    Q     
----------------------|----------------------|--0--------------2----|
------------0----2----|-------0----2----4----|-------4----2---------|
--2----4--------------|--3-------------------|----------------------|
----------------------|----------------------|----------------------|


  Q    Q    Q    Q       W                   W                 
------------0---------|-------------------|-------------------|
--0--------------4----|-------------------|-------------------|
-------4--------------|--2----------------|--L----------------|
----------------------|-------------------|-------------------|


  W                   H        H           W                 
-------------------|--------------------|-------------------|
-------------------|-----------0--------|--L----------------|
--2----------------|--L-----------------|-------------------|
-------------------|--------------------|-------------------|


  W                  
-------------------||
--L----------------||
-------------------||
-------------------||




Duration Legend
---------------
W - whole
H - half
Q - quarter
E - 8th
S - 16th
T - 32nd
X - 64th
. - note dotted
|-n-|  - n-tuplets


Tablature Legend
----------------
L - tied note
x - dead note
g - grace note
(n) - ghost note
> - accentuded note
NH - natural harmonic
AH - artificial harmonic
TH - tapped harmonic
SH - semi harmonic
PH - pitch harmonic
h - hammer on
p - pull off
b - bend
br - bendRelease
pb - preBend
pbr - preBendRelease
brb - bendReleaseBend
\n/ - tremolo bar dip
\n - tremolo bar dive
-/n - tremolo bar Release up
/n\ - tremolo bar inverted dip
/n - tremolo bar return
-\n - tremolo bar Release down
S - shift slide
s - legato slide
/ -  slide into from below or out of upwards
\ -  slide into from above or out of downwards
~ - vibrato
W - wide vibrato
tr - trill
TP - tremolo picking
T - tapping
S - slap
P - pop
< - fade in
^ - brush up
v - brush down
comments
We did not receive enough feedback on this tab! Please rate:
print report bad tab
1 2 3 4 5
I want to post or [tab]
guest
You may want to rate the tab now too:
select rating
Please do not post tabs as comments. Select "correction" instead!