Oops, an error
Loading. Please wait.

Fireball Tab

version 1
version 1

Album

Whole song

Interactive

10,904 views 18 this week
no commentswrite comment
1 2 3 4 5
1 last vote to show rating
add to favorites
launch autoscroll
font size
0
reset
how to read this tab
guitar tuner
Autoscroll
slow
fast
+/-
esc
set tempo
stop
Help us to improve Ultimate-Guitar.com Take our survey!
×
Author
Difficulty
intermediate
Fireball Album by Deep Purple

Tabbed by Mathias Braathen

Fireball                 * = Tabs i dont have

1.Fireball
2.No No No
3.Demons Eye
4.Anyones Daughter
5.The Mule
6.Fools
7.No One Came

Bonus Tracks on Remastered CD

8.Strange Kind Of Woman
9.I'm Alone *
10.Freedom
11.Slow Train
12.The Noise Abatement Society Tapes *


Now..

Fireball
Fireball
Deep Purple

verse 1:
e|------------------------------------------------------------------|
B|------------------------------------------------------------------|
G|------------------------------------------------------------------|
D|------------------------------------------------------------------|
A|-----------------------------5--------------------------5---------|
E|--(5h)7--7-7-7-7-7-7-7-7-7-7---7-5---(5h)7--7-7-7-7-7-7---7-5--7x-|
        v  v ^ v ^ v ^ v ^ v ^ v ^ v       v  v ^ v ^ v ^ v ^ v  v


   The golden light about you --         show me where you're from
   The magic in your eye bewitches --    all you gaze upon
   You stand up on your hill and --      behop all around you
   They wonder where you're from oh --   they wonder where I found you


chorus 1:
e|--------------------------------------7----------------------2-----|
B|-----------------------9------------7-7----------------------2-----|
G|-----------------------9------------8-8----------------------3-----|
D|-----------------------9------------9-9----------------------4-----|
A|-------------4-5-7-------------------------------------------------|
E|--5----------------0------------7---------7-7-----------3----------|


    Oh my love it's a -- long way Where you're from it's a long way


verse 2:
I tried to understand you, --         I tried to love you right
The way you smile and touch me always sets my heart alight
Your lips are like a fire --          burning through my soul
And people ask me where you're from   They really wanna know


chorus 2:
e|----------------------------------------------------------2-------|
B|----------------------------------------------------------2-------|
G|----------------------------------------------------------3-------|
D|--------------------------------9-------------------------4-------|
A|-------------4-5-6-(7)----------9-------------------------4-------|
E|--5-----------------0-----------7---------------------------------|


    Oh my soul it's a long way --  Where you're from it's a long way


interlude 1:
e|------------------------------------------------------------------|
B|------------------------------------------------------------------|
G|------------------------------------------------------------------|
D|------------------------------------------------------------------|
A|--7~-7~-7^-7-7-7-7-7-7-7-7-7-7-7-7-4-4-4-4-4-4-4-4-4-4-4-4-4-4----|
E|------------------------------------------------------------------|

   ...


       Magic woman --              wreckin' up my soul


e|------------------------------------------------------------------|
B|------------------------------------------------------------------|
G|------------------------------------------------------------------|
D|------------------------------------------------------------------|
A|--3-3-3-3-3-3-3-3-3-3-3-3-3-3-3-3---------2-2-2-2-3-3-3-3-4-4-4-4-|
E|----------------------------------3-3-3-3-------------------------|


        Things you tell me have --  never been told


e|-------------------------------------------------------------------|
B|-------------------------------------------------------------------|
G|-------------------------------------------------------------------|
D|-------------------------------------------------------------------|
A|--5-5-5-5-5-5-5-5-5-5-5-5-5-5-5-5-------------------------3h4p3h4--|
E|----------------------------------5-----52-2-2-2-2-2-2-2-----------|

                                                            trill

        Magic woman --              I don't know


e|------------------------------------------------------------------|
B|------------------------------------------------------------------|
G|------------------------------------------------------------------|
D|------------------------------------------------------------------|
A|------------------3h4p3h4---------3h4p3h4---some weird scratching-|
E|--2-2-2-2-2-2-2-2---------2-2-2-2---------------------------------|

                            (...4 times...)


   Electric before me I love you so I love you so


verse 3:
You're racing like a fireball --     dancing like a ghost
You're gemini and I don't know which one I like the most
My head is getting broken and my --  mind is getting bust
But now I'm coming with you down the road of golden dust


chorus 3:
Oh my love it's a long way   Where you're from it's a long way


interlude 2 (after Roger's solo):
e|-------------------------------------------------------------------|
B|--7x---7-7x---7x---------------------------------------------------|
G|--8x---8-8x---8x---3-4---------------------------------------------|
D|--9x---9-9x---9x-----------3-4-------------------------------------|
A|--9x---9-9x---9x-------1-2-----------------------------------------|
E|-------------------------------0-1-2-3-4-5-5h7--7-7-7-7-7----------|..


verse riff over Jon's solo

verse riff again


chorus 4:
e|------5-----------7---11------------------------------------------|
B|------5---9-9---7-7---11------------------------------------------|
G|------6---9-9---8-8---11------------------------------------------|
D|------7---9-9---9-9---11------------------------------------------|
A|------7---7-7---9-----9-------------------------------------------|
E|--5---------------------------------------------------------------|


verse again until fade...

________
No No No
Fireball
Deep Purple

Intro:
E|--------------------------------------------------------------|
B|--------------------------------------------------------------|
G|-------------------2------------------------------------------|
D|-----------5x--3h4-------------------7x--10-------------------|
A|-----x-5h7-----------5-3-0-----x-7h9---------12p10----10-12x--|
E|--5x-----------------------3-----------------------12---------|


E|-----------------------------------------------------------------|
B|-----------------------------------------------------------------|
G|-------------------2---------------------------------------------|
D|-----------5x--3h4-----------------------------------------------|
A|-----x-5h7-----------5-3-0-----5h7p5h7p5h7p5h7-------------------|
E|---------------------------3-------------------------------------|

Verses:

D

Really hate the running really hate the game

                                        A

Looking at them all I wanna be unborn again

      D

Their suit is getting tighter although they're getting thin

                                                       A

The flies are crawling on their face and trying to get in

E

People say that we're to blame I say

D7                     A

No no no it's just the game

D

Must we let them fool us no no no

                                  A
Have we got our freedom no no no

D

Is it getting better no no no

                                  A

Do we love each other no no no

E                    D7           A          G/A     D/A...

Must we wait forever no no no


__________
Demons Eye
Fireball
Deep Purple


------------------|------------------|-------------------------|
------------------|------------------|-------------------------|
------------------|------------------|----------3--5b-3--5-----|
------------------|------------------|-------5--------------5--|
------------------|------------------|----5--------------------|
------------------|------------------|-------------------------|

---------------------|---------------------------3-|-----------3----------|
---------------------|-------------------------3---|--6b------------------|
--3b--------------5--|----5--5--5--3---3---3-5b----|----------------6--6--|
---------5~----------|---------------5---5---------|----------------------|
---------------------|-----------------------------|----------------------|
---------------------|-----------------------------|----------------------|

--3-----------------------------5b-|----6--3------------------------|
-----3-----------------------------|---------6-------8--------------|
--------6--5--3-----5-3------3b----|-----------7h5-7----6-5-3---5---|
-----------------5------5-5--------|--------------------------5---5-|
-----------------------------------|--------------------------------|
-----------------------------------|--------------------------------|

--------------------------|-------6b---6-------------|--8b---6--8-------6--|
--------------------------|---------------8--6--8----|-------------8-------|
--3b-------------3-----3--|--7-----------------------|---------------------|
-------5------5-----5-----|--------------------------|---------------------|
--------------------------|--------------------------|---------------------|
--------------------------|--------------------------|---------------------|

--13b---13--15----------------|--8-----6---------6b---|
----------------13----13--11--|-----8-------8~--------|
------------------------------|-----------------------|
------------------------------|-----------------------|
------------------------------|-----------------------|
------------------------------|-----------------------|

--8r-8r-6-----6b-8--6--------------|--------------------------------------|
-----------8-----------8-----------|--------------3--------3--------------|
--------------------------7--5-----|--6--5--3--------3--5-----5--3-----3~-|
--------------------------------5--|-----------5--------------------5-----|
-----------------------------------|--------------------------------------|
-----------------------------------|--------------------------------------|

---------------------3-----------|------------------------------|
------6b-6--3-----3-----3--------|------------------------------|
---------------5b----------5-----|--5--3-----5r-3-----3b--------|
------------------------------5--|--------5--------5---------5--|
---------------------------------|------------------------------|
---------------------------------|------------------------------|

--------------------------|-----------------------------------8--|
--6b---6b-----------------|--------------------------6--6/-8-----|
----------6--5h3----5--3--|-----------------5--5/-7--------------|
-----------------5--------|--------3--3/-7-----------------------|
--------------------------|--3/-5--------------------------------|
--------------------------|--------------------------------------|

-----------------------------|-----------------------3--|
--3/-5--8-----------------3--|-------6b---6b---3--3-----|
-----------------5r----------|--3b----------------------|
-----------3/-5--------------|--------------------------|
-----------------------------|--------------------------|
-----------------------------|--------------------------|

--------------------------------------|-------------------|----------------|
--3-----------------------------------|-------------------|----------------|
-----6--5--3-----5--3-----------------|-------------------|----------------|
--------------5--------5--3-----------|-------------------|----------------|
-----------------------------5--3-----|-------------------|----------------|
-----------------------------------6--|--3----------------|----------------|

-------------------------|-------------------------|----------------------|
--------3----------------|-------------------------|----------------------|
-----3-----3--5-----3b---|--------------3b---------|----------------------|
--5--------------5-------|--5-----3--5-------5-----|--3----5----3---------|
-------------------------|-----5----------------5--|-----------------5----|
-------------------------|-------------------------|----------------------|

----------------------|--------------------------|-----------------------|
----------------------|--------------------------|--------------------6b-|
----------------------|--3-----------------------|--5r-3-------3---------|
-------------------5--|-------5--3-----3----5----|--------5--------------|
--4----3----1---------|-------------5------------|-----------------------|
----------------------|--------------------------|-----------------------|

------3-----------3-----------|--------------------------|
---------3--3--3--------------|-----------------------8--|
---------------------5--5r--3-|--5-----3----5--7/-10-----|
------------------------------|-----5--------------------|
------------------------------|--------------------------|
------------------------------|--------------------------|

--5r-3-------3----8r---|--6--8-------6b---8b---|--6--3--6b---3~------------|
--------5--------------|--------8~-------------|---------------------3--6--|
-----------------------|-----------------------|------------------5--------|
-----------------------|-----------------------|---------------------------|
-----------------------|-----------------------|---------------------------|
-----------------------|-----------------------|---------------------------|

--------------------------------------|-----6-----3--------3-------------|
--6--6--6--5/-6--6--5/-6--6--5/-6--6--|--6-----6-----6--6-----3----------|
--------------------------------------|-------------------------6--5--3--|
--------------------------------------|---------------------------------5|
--------------------------------------|----------------------------------|
--------------------------------------|----------------------------------|

-----------------------------------3--|-------3--------3-----3--3--3--|
--------------------------------3-----|--6b------3--3-----3-----------|
--5r-3--5--3-----5--3-----3--5b-------|-------------------------------|
--------------5--------5--------------|-------------------------------|
--------------------------------------|-------------------------------|
--------------------------------------|-------------------------------|

--3----3--------------3--------|--3--3--3--3--3--3-------3--3--3--|
----------6h-3--3~-3~----6h-3--|--------------------6-------------|
-------------------------------|----------------------------------|
-------------------------------|----------------------------------|
-------------------------------|----------------------------------|
-------------------------------|----------------------------------|

-----3--3-----3--3-----3--3-----3--3--|---------------3--3--3--|
--6b-------6b-------6b-------6b-------|--6~--------------------|
--------------------------------------|------------------------|
--------------------------------------|------------------------|
--------------------------------------|------------------------|
--------------------------------------|------------------------|

-------------------||
--6~---------------||
-------------------||
-------------------||
-------------------||
-------------------||

______________________
Anyones Daughter (solo)
Fireball
Deep Purple
                                                                   [

Sorry... Just the guitar solo:

e------------------------------------------|
b------------------------------------------|
g----------------5-4--4h5p4----------------|
d----------4-5-7------------7-5-4---4/5~~~-|
a--------7------------------------7--------|
e---3--------------------------------------|

e|------------------------------------------------------|
b|------------------------------------------------------|
g|---------------------5-4--4h5p4----------------5-4~~~-|
d|------4-5-4---4-5-7-------------7-5-4---4-5-7---------|
a|--5-7-------7-------------------------7---------------|
e|------------------------------------------------------|


e-----------------------------------------------------------|
b-----------------------------------------------------------|
g---------5-4---4h5p4---------------5-4---4-5-7--7/9-7-7~~~-|
d---4-5-7-----7-------7-5-4---4-5-7-----7-------------------|
a---------------------------7-------------------------------|
e-----------------------------------------------------------|

e|-------------------------------------------------------|
b|-------------------------------------------------------|
g|---------5-4-----4h5p4---------------------------------|
d|--4-5-7------7---------7-5-4---4-5-7-5-4---4-5-7-5~~~~-|
a|-----------------------------7-----------7-------------|
e|-------------------------------------------------------|


e-------------------------------------------------5------------|
b--------------------------------------------5------8-5-8-5~~~-|
g-------------------5-4---4h5p4---4-5--4-5-7---X---------------|
d-------5-4---4-5-7-----7-------7------------------------------|
a---5-7-----7--------------------------------------------------|
e--------------------------------------------------------------|

e|------------------------------|
b|------------------------------|
g|--4-5-7-5-6--7-----7---7~~~---|
d|------------------------------|
a|------------------------------|
e|------------------------------|

e--------------------5---7-5-7---|----|7|-8-7-5-------------------|
b--------5-8-7-5-7-8---8---------|---|8|----------8-5-8-8-5~~~~~--|
g---7-8--------------------------|--|9|---------------------------|
d--------------------------------|--------------------------------|
a--------------------------------|--------------------------------|
e--------------------------------|--------------------------------|

________
The Mule (Intro)
Fireball
Deep Purple

Just got the Intro, sorry:

e|---------------------------------------------------------------------|
b|---------------5-8~~---8--7h8p7-5-7-5h7p5-3-5-3h5p3---3--------------|
g|-----5-6-7-6-7--------------------------------------6---6------------|
d|--/7------------------------------------------------------7-5~~------|
a|---------------------------------------------------------------------|
e|---------------------------------------------------------------------|


_____
Fools
Fireball
Deep Purple

intro 1:
e|-------------------------------------------------------------------|
B|-------------------------------------------------------------------|
G|-------------------------------------------------------------------|
D|-------------------------------------------------4-2---------------|
A|----------------74--2/4------74--------------------4---------------|
E|--4/7--4/7--4/7-----------4/7------74--2/4-74---------4/7----------|

intro 2 (fingerpick):
e|---------------                -------|
B|---------------                ---0---|
G|--------4------    adding some -4---4-| unisono variations
D|-----4-----4---                -------|
A|--2------------                -------|
E|---------------                -------|


I'm crying --   I'm dying


verse 1:
e|-------------------------------------------              ----------|
B|-------------------------------------------              ----------|
G|-------------------------------------------  last one    ----------|
D|------7/9---7/9---7---------7/9---7--------  ending with ----------|
A|--9---5/7---5/7---5-9---9---5/7---5-7-9---              --7--------|
E|--7-----------------7---7-----------5-7---              --5--------|


I can see what's wrong with me --  It's in my head
I can see what's gonna be --       As I lie in my bed
Man is not my brotherhood --       I am of the dead


e|--------------------------------------------------------------------|
B|---------------------------------------------------------------5----|
G|--------------------------------------------------------------------|(7)b9
D|---------------------------7----------------------------------------|
A|-----------------------------7--5-4-5-4h5p4-------------------------|
E|--5-4-5-6-7-8-9-10-7--7h10------------------5-7--10-10-9-9-0-------|


                     I died as I lived as I loved and was born
                                           On some distant hill
                     The reasons to hide were the reasons I cried
                                           Fools pass laughing still


verse 2:
There can be bad blood in all I can see --  It's in my brain
You don't know the pain I feel --           As I must live again
Rocks and stones can't bruise my soul but tears will leave a stain


They smile to themselves as they lay down my head
On some distant hill
The blind and the child sweep a tear from their eye
Fools smile as they kill


Ritchie's solo, done with volume knob acrobatics, bit tricky:
e|------------------------------------------------------------------|
B|------------------------------------------------------------------|
G|------------------------------------------------------------------|
D|--2-----2---4-5-7---5-4-0---2-4-2------2---4-5-7---0---9-7-5-7-0--|
A|------------------------------------------------------------------|
E|------------------------------------------------------------------|


e|------------------------------------------------------------------|
B|------------------------------------------------------------------|
G|------------------------------------------------------------------|
D|--0---2-0-----4---2-0---0-------------0-----2---0-----------------|
A|----------0-----------4---2-----2---3---0---------3-0---2---------|
E|------------------------------------------------------------------|


e|------------------------------------------------------------------|
B|--5---7---5---7---5-------------------------------5---------------|
G|--------7-------7-----7-6-----------4-6---7-6------76-4-----5-----|
D|--------------------------7-----7-------4-----6-7-------7---------|
A|------------------------------------------------------------------|
E|------------------------------------------------------------------|


e|------------------------------------------------------------------|
B|------------------------------------------------------------------|
G|------------------------------------------------7-5-4-------------|
D|--------0-----2-0---------------2---4-5-7---0---------5-7---------|
A|--2---3-----------2---0-------------------------------------------|
E|----------3---------------3---------------------------------------|


e|------------------------------------------------------------------|
B|------------------------------------------------------------------|
G|------4-5-7-------------------------------------------------------|
D|--7-----------4---7-4-5-2-0-----0---2-----------------------------|
A|------------------------------------------------------------------|
E|------------------------------------------------------------------|


verse 3:
I got my own way to go and now I want -- To take your minds
I believe if you could see --            The blood between the lines
I believe that you could be --           A better kind


Please lead the way so the unborn can play
On some greener hill
Laugh as the flames eat their burning remains
Fools die laughing still

___________
No One Came
Fireball
Deep Purple

intro bass (open E string is played by bass except noted)
e|--------------------------------------------------------------|
B|-----------------------------------5--------------------------|
G|-----------------------------------7--------------------------|
D|-----------------------------------6--------------------------|
A|-----------------------------------7--------------------------|
E|-0-0-0-0-0-0-0-0-0-0-0-0-0-0-0-0---0--------------------------|

Maybe it's because I'm only starting
e|--------------------------------------0-----------------------|
B|-----------------------------------5--5-----------------------|
G|-----------------------------------7--7-----------------------|
D|-----------------------------------6--6-----------------------|
A|-----------------------------------7--7-----------------------|
E|-0-0-0-0-0-0-0-0-0-0-0-0-0-0-0-0---0--------------------------|


That I think it won't take too long
e|--------------------------------------0-----------------------|
B|-----------------------------------5--5-----------------------|
G|-----------------------------------7--7-----------------------|
D|-----------------------------------6--6-----------------------|
A|-----------------------------------7--7-----------------------|
E|-0-0-0-0-0-0-0-0-0-0-0-0-0-0-0-0---0--------------------------|


Maybe it's because I can see you laughing ......you've got it wrong
e|----------------------------------------------------------------|
B|----------------------------------------------------------------|
G|----------------------------------------------------------------|
D|--------------------------------------------------------2~~-----|
A|-----------------------------------4-5-4-5--------------2~~-----|
E|-0-0-0-0-0-0-0-0-0-0-0-0-0-0-0-0-------------4-5-4-5----0~~-----|


Maybe I could be like Robin Hood
e|--------------------------------------------------------------|
B|-----------------------------------5--5-----------------------|
G|-----------------------------------7--7-----------------------|
D|-----------------------------------6--6-----------------------|
A|-----------------------------------7--7-----------------------|
E|-0-0-0-0-0-0-0-0-0-0-0-0-0-0-0-0---0--0-----------------------|

Like and outlaw dressed all in green
e|--------------------------------------------------------------|
B|-----------------------------------5--5-----------------------|
G|-----------------------------------7--7-----------------------|
D|-----------------------------------6--6-----------------------|
A|-----------------------------------7--7-----------------------|
E|-0-0-0-0-0-0-0-0-0-0-0-0-0-0-0-0---0--------------------------|

Someone said what's he gonna turn out........else said never mind
e|----------------------------------------------------------------|
B|----------------------------------------------------------------|
G|----------------------------------------------------------------|
D|--------------------------------------------------------2vvvv---|
A|-----------------------------------4-5-4-5--------------2vvvv---|
E|-0-0-0-0-0-0-0-0-0-0-0-0-0-0-0-0-------------4-5-4-5----0vvvv---|

Well I was big and bold and more than twice as old
e|--------------------------------------------------------------|
B|--------------------------------------------------------------|
G|-----x-----------------------x--x-----------------------------|
D|---x-x-x---------4~~~--------x--x----------4~-----------------|
A|---x---x---2h4~~----------x--x--x--2h3h4~~--------------------|
E|--------------------------x-----------------------------------|

As all the cats I'd ever seen
e|--------------------------------------------------------------|
B|--------------------------------------------------------------|
G|-----x--------------------------x-----------------------------|
D|---x-x-x---------4~~~--------x--x----------4~-----------------|
A|---x---x---2h4~~----------x--x--x--2h3h4~~--------------------|
E|---c----------------------x-----------------------------------|


I grew my hair and bought a suit of shiny white or was it cream
e|--------------------------------------------------------------|
B|--------------------------------------------------------------|
G|-----x-----------------------x--x-----------------------------|
D|---x-x-x---------4~~~--------x--x----------4~-----------------|
A|---x---x---2h4~~----------x--x--x--2h3h4~~--------------------|
E|--------------------------x-----------------------------------|

I shook and shivered danced and quivered And stood on a mountain top
e|--------------------------------------------------------------|
B|--------------------------------------------------------------|
G|-----x--------------------------x-----------------------------|
D|---x-x-x---------4~~~--------x--x----------4~-----------------|
A|---x---x---2h4~~----------x--x--x--2h3h4~~--------------------|
E|---c----------------------x-----------------------------------|

No one came from miles around and said Man your music is really hot
e|--------------------------------------------------------------|
B|---------------------------------------------7b9--------------|
G|--------------------------------------------7-----------------|
D|-------------------------------------------7------------------|
A|-------7-5-7-5-7-5-7--9b10rb9---5~~--7~~~---------------------|
E|---/5~--------------------------------------------------------|
AH [....]

And said man your music is really funky......eaow.....
e|------------------------------------------12------------------|
B|-----------------------------------------7--------------------|
G|----------------------------------------7---------------------|
D|---------------------------------------7---------0---0--------|
A|----------------7-5-7-5-7-5-7--9b10rb9----------4---2--2~s7~--|
E|-----------/5~---------------------------------5---3---0~-----|
AH [....]

solo 1:58 (brigde pickup)
e|--------------------------------------------------------------|
B|--------------------------------------------------------------|
G|---[14]b16-[14]b16-[14]b16---[14]b16rb14p12~--12-[14]b16~~----|
D|--------------------------------------------14----------------|
A|--------------------------------------------------------------|
E|--------------------------------------------------------------|


e|--------------------------------------------------------------|
B|--------------------------------------------------------------|
G|--14b16~~rb14p12--12~~----------------------------------------|
D|----------------14----14~p12h14-------------------------------|
A|-------------------------------14-13-12-10~~~-----------------|
E|--------------------------------------------------------------|

2:04
e|-------------------------------------------------------------------|
B|-------------------------------------------------------------------|
G|--------------------12----[12]--------12-13-14-13-12---------------|
D|---------------12-14--[14]----12-13-14--------------14-11h12p11----|
A|-/10~-/12-13-14------------------------------------------------12~-|
E|-------------------------------------------------------------------|

e|--------------------------------------|
B|--------------------------------------|
G|--[6]b7rb6b7rb6-----------------------|
D|---------------[6]b7rb6b7rb6----------|
A|-----------------------------[7]~~----|
E|--------------------------------------|

switch to
neck pickup 2:13
e|-------------------------------------------------------------|
B|-----------------------------------------------12-13-14------|
G|---------------------------17b19~rb17b19~~---14--------------|
D|------------------17-18-19-----------------------------------|
A|----------17-18-19-------------------------------------------|
E|--/17-18-19--------------------------------------------------|

e|------------------------------------------------------|
B|---9-10-11--7-8-9----7-8------------------------------|
G|-12--------9------7-9---------------------------------|
D|--------------------------------x-----5~-----5-5~-----|
A|------------------------5s7~~-x-x-5-7~---7-5----------|
E|------------------------------x-----------------------|

e|------------------------------------------------------------|
B|-------------------------------------------13-12------------|
G|--16-18-19-20--15-17-18-19--14-15-16-17--14-----16~---------|
D|------------------------------------------------------------|
A|------------------------------------------------------------|
E|------------------------------------------------------------|

e|--------------------------------------------|
B|------------------------------12-14-15b17~--|
G|----------------------12-13-14--------------|
D|--------------12-13-14----------------------|
A|------12-13-14------------------------------| hammond solo
E|-12-15--------------------------------------|

second solo around 4:00
e|--------------------------------------------------------------|
B|--------------------------------------------------------------|
G|--------------------------------------------------------------|
D|--------------------------------------------------------------|
A|--feedback-7~~~~~~~~~~~~~~~~~~~~----4b5~~~~~~~~~~~rb4-2h4p2---|
E|-----------------------------------------------------------5--|

e|--------------------------------------------------------------|
B|--------------------------------------------------------------|
G|---------------------------------------7~~~~-feedback---------|
D|----------------------------feedback-E------------------------|
A|-----2-2~~~~~-/6s7s9~~~~~~~-----------------------------------|
E|--4-5-5-------------------------------------------------------|


e|-----------|----|----------|-Dive---|
B|-----------|----|----------|-with---|
G|-----------|----|----------|-bar----| 2 times
D|--14-13-12-|-3X-|-14-13-12-|-1 step-|
A|-----------|----|----------|-3X-----|
E|-----------|----|----------|--------|

e|-----------------------|
B|---------17-feedback~~-|
G|--14b16~~rb12----------|
D|-------------14~~------|
A|-----------------------|
E|-----------------------|

e|-----------|----|----------|
B|-----------|----|----------| repeat
G|-----------|----|----------| 2 times
D|--14-13-12-|-3X-|-14-13-12-|
A|-----------|----|----------|
E|-----------|----|----------|


e|--------------------------------------------------------------------|
B|-----------------------------------------------------------------9--|
G|--------------------------0--------------------------------------9--|
D|----------------------0--2-------------------------0---0-2~~-----9--|
A|---5-4-5-4-----------2--3-------5-4-5-4-----------2---0--2~~s7~~-7--|
E|-----------5-4-5-4--3-------------------5-4-5-4--3---2---0~~--------|


Bonus Tracks on Remastered CD


_____________________
Strange Kind Of Woman (Solo And Intro)
Fireball (Remastered CD)
Deep Purple

Just got the solo and intro.. Sorry..

Intro:

|-10-8-----------8--------------|-----------------------------|----------|
|------11-8----8---11-8---------|-----------------------------|------8---|
|-----------10----------11-10-8-|-8----8-8----------------8---|-----10---|
|-------------------------------|---10-----10-8----8-9-10---8-|-10---9---|
|-------------------------------|---------------10------------|-----10---|
|-------------------------------|-----------------------------|----------|

Solo:

-----------------------------------------------------------|
------------------------------3b5--------2-3--5--3b5r5p3---|
-2-4--4-2-4-4-2-4--4-2-4--4-2-----4-2-4------------------4-|
-----------------------------------------------------------|
-----------------------------------------------------------|
-----------------------------------------------------------|


--------------------------------------------------------5----------------|
3-3--------3-------3-----------3b5-3b4-------3-3--5-5b7---5h7p5-3-5--3-5-|
-----4-2-4---4-2-4---4-2-4--4-2-------4p2-4p0----------------------4-----|
-------------------------------------------------------------------------|
-------------------------------------------------------------------------|
-------------------------------------------------------------------------|


-------------------2--5b7-5-2----------------------------------------------|
--3--------------3-----------5-3--3p0---5---3---------2-3-5-3---3-3-5p3-5--|
4--4-2-4-4---2-4-----------------4-----4---4---4--4-4---------4----------9-|
---------------------------------------------------------------------------|
---------------------------------------------------------------------------|
---------------------------------------------------------------------------|

-----------------------------7-------7---------------------7-------------|
---------------------------7---10b12---10-7---------10b12---10-7---------|
9b11-9b10-9-7-7b8-8b9-9b11------------------10-9-7--------------10-9-7---|
--------------------------------------------------9--------------------9-|
-------------------------------------------------------------------------|
-------------------------------------------------------------------------|


----------------7--9--10--9--------------12b14-|
-------------7---------------12-10-12-10-------|
-----6-7-9-8-----------------------------------|
-7-9-------------------------------------------|
-----------------------------------------------|
-----------------------------------------------|

_______
Freedom
Fireball (Remastered CD)
Deep Purple

Riff: (Play 2x)
E|-------------------------------------------------------------|
B|-------------------------------------------------------------|
G|------------5-3-4-0---0---3--------------5-3-4-0-------------|
D|----------3---------0---0---3----------3---------0-----------|
A|------2-5--------------------------2-5-------------4-3-------|
E|--3-3--------------------------3-3---------------------------|


Verse:
G                             F
Ah my honey take my money

F                       C
I do what I wanna do

C                         G
Don't you know the sun is shining


Chorus:
D
Spread the world I'm livin' again

D
Tell the world I'm lovin' again

D
Don't you know i feel like givin' again

D C    C Bb
Freedom

and then riff...

__________
Slow Train
Fireball (Remastered CD)
Deep Purple

Riff: (Play 2 times)
E|--------------------------------------------------------|
B|--------------------------------------------------------|
G|--------------------------------------------------------|
D|--------------------------------------------------------|
A|--------------------------3----------------3------------|
E|--0-3-5-0-3-5-0-3-5-0-3-5---5--0-3-5-0-3-5---5-3-0-3-5--|


(This only 1x)
E|-----------------------------------------------------------------|
B|-----------------------------------------------------------------|
G|-----------------------------------------------------------------|
D|---------------------------------------------------------5---7---|
A|------5---5h6p5---------3---5-3--------5---5h6p5-----5h7---7-----|
E|--5-8---8-------8-5-3h5---5-----5--5-8---8-------8-5-------------|

Verse:
A
How can you live in such a state

     D
Your mind is empty and you are full of hate...

Chorus:
A
Aaaaaaaaaaah

   G
Aaaaaaaaaaah

                      A
Gonna be a long time, babe

                 D
Before we get it sorted out all right...


Thats all i got from this CD... Enjoy :] !!
Suggest correction
Give kudos to tab author, rate the tab!
1 2 3 4 5
comments
print report bad tab
guest
You may want to rate the tab now too:
select rating
Wanna post a correction for this tab? Suggest correction