Oops, an error
Loading. Please wait.

Highway Star Bass Tab

version 1
version 1
52,738 views 162 this week
no commentswrite comment
1 2 3 4 5
excellent!
x 4
add to favorites
launch autoscroll
font size
0
reset
guitar tuner
Autoscroll
slow
fast
+/-
esc
set tempo
stop
Help us to improve Ultimate-Guitar.com Take our survey!
×
Author
[A: Intro]

       E  S S E  S S E  S S E  S S E  S S E  S S E  S S E  S S 4x
G||-------------------------------------------------------------|
D||*-----------------------------------------------------------*|
A||*--10-101010-101010-101010-101010-101010-101010-101010-1010-*|
E||-------------------------------------------------------------|

slide first time only
   E  S S E  S S E  S S E  S S E  S S E  S S E  S S E  S S  3x
|-/12-121212-121212-121212-121212-121212-121212-121212-1212--|
|*----------------------------------------------------------*|
|*----------------------------------------------------------*|
|------------------------------------------------------------|


   E   E   E    E   E  E   E  E        E   E   E   E   E   E   E   E  14x
--10-----------------------------||------------------------------------||
------12--10h--11--10--8---------||*----------------------------------*||
--------------------------10--8--||*--10--10--10--10--10--10--10--10--*||
---------------------------------||------------------------------------||


                     [B: 1st/3rd Verses]

  H        H           E  E  E  E  E  E  E  E     E  E  E  E  E  E  E  E
--------------------|--------------------------|--------------------------|
--------------------|--5--5--5--5--5--5--5--5--|--5--5--5--5--5--5-----3--|
--3--------1--------|--------------------------|--------------------5-----|
--------------------|--------------------------|--------------------------|


  E  E  E  E  E  E  E  E     Q    E  Q    E  Q       E  E  E  E  E  E  E  E
--------------------------|-----------------------|--------------------------|
--5--5--5--5--5--3--------|-----------------------|--5--5--5--5--5--5--5--5--|
--------------------5--3--|--1-------3-------1----|--------------------------|
--------------------------|-------3-------3-------|--------------------------|


  E  E  E  E  E  E  E  E     E  E  E  E  E  E  E  E     Q    E  Q    E  Q
--------------------------|--------------------------|-----------------------|
--5--5--5--5--3-----3--4--|--5--5--5--5--5--3--------|-----------------------|
-----------------5--------|--------------------5--3--|--1-------3-------1----|
--------------------------|--------------------------|-------3-------3-------|


  E  E  E  E  E  E  E  E     E  E  E  E  E  E  E  E
--------------------------|--------------------------|
--3--3--3--3--3--3--3--3--|--3--------------1--1--2--|
--------------------------|-----0--1--2--2-----------|
--------------------------|--------------------------|


                                  2nd time:to J    [C: 1st Pre-chorus]
  E  E  E  E  E  E  E  E     Q    Q    Q    Q       E  E  E  E  E  E  E  E
--------------------------|----------------------|--------------------------|
--3--3--3--3--3--------1--|--3----3----2----1----|--0--0--0--0-----0--3--0--|
-----------------1--3-----|----------------------|--------------3-----------|
--------------------------|----------------------|--------------------------|


  E  E  E  E  E  E  E  E     E  E  E  E  E  E  E  E
--------------------------|--------7--5--------------|
--5--3--------------3--4--|--5--7--------7--5--5--6--|
--------5--3--3--5--------|--------------------------|
--------------------------|--------------------------|

                           [D: Choruses]
  E  E  E  E  E  E  E  E     E  E  E  E  E  E  E  E
--------------------------|--------------------------|
--7--5--------------------|--------------------------|
--------7--5--3--4--5--0--|--L--0--3--0--5--0--7--0--|
--------------------------|--------------------------|


  E  E  E  E  E  E  E  E     E  E  E  E  E  E  E  Q
--------------------------|----------------------------|
--------------------------|----------------------------|
--L--0--3--0--5--0--7--0--|--L--0--3--0--5--0--7--0----|
--------------------------|----------------------------|


  E  E  E  Q    E  E  E     E  E  E  E  E  E  E  E     E  E  E  E  E  E  E  E
-------------------------|--------------------------|--------------------------|
-----5--7-------5--7-----|--------------------------|--------------------------|
--L--------0----------0--|--L--0--3--0--5--0--7--0--|--L--0--3--0--5--0--7--3--|
-------------------------|--------------------------|--------------------------|


  E  E  E  Q    E  E  E     E  E  E  Q    E  E  E     E  E  E  Q    E  E  E
-------------------------|-------------------------|-------------------------|
-----5----------7--------|-----5----------7--------|-----5----------7-----3--|
--L-----3--5-------5--3--|--L-----3--5-------5--3--|--L-----3--5-------5-----|
-------------------------|-------------------------|-------------------------|

         1st/2nd time:to H

         3rd time:to M     [E: 1st Post-chorus]
  E  E  E  Q    E  E  E     W                   W
-----5----------7--------|-------------------|-------------------|
--L-----3--5-------5--7--|--L----------------|--L----------------|
-------------------------|-------------------|-------------------|
-------------------------|-------------------|-------------------|


                                         [F: 2nd/4th Verses]

  W                   H        H           E  E  E  E  E  E  E  E
-------------------|--------------------|--------------------------|
--L----------------|--------------------|--5--5--5--5--5--5--5--5--|
-------------------|--3--------1--------|--------------------------|
-------------------|--------------------|--------------------------|


  E  E  E  E  E  E  E  E     E  E  E  E  E  E  E  E     Q    E  Q    E  Q
--------------------------|--------------------------|-----------------------|
--5--5--5--5--3-----3--4--|--5--5--5--5--5--3--------|-----------------------|
-----------------5--------|--------------------5--3--|--1-------3-------1----|
--------------------------|--------------------------|-------3-------3-------|


  E  E  E  E  E  E  E  E     E  E  E  E  E  E  E  E
--------------------------|--------------------3-----|
--5--5--5--5--5--5--5--5--|--5--5--5--5--3--------3--|
--------------------------|-----------------5--------|
--------------------------|--------------------------|


  E  E  E  E  E  E  E  E     Q    E  Q    E  Q       E  E  E  E  E  E  E  E
--------------------------|-----------------------|--------------------------|
--5--5--5--5--5--3--------|-----------------------|--3--3--3--3--3--3--3--3--|
--------------------5--3--|--1-------3-------1----|--------------------------|
--------------------------|-------3-------3-------|--------------------------|

                                                                2nd time:to L
  E  E  E  E  E  E  E  E     E  E  E  E  E  E  E  E     Q    Q    Q    Q
--------------------------|--------------------------|----------------------|
--3--------------1--1--2--|--3--3--3--3--3--------1--|--3----3----2----1----|
-----0--1--2--2-----------|-----------------1--3-----|----------------------|
--------------------------|--------------------------|----------------------|


[G:2nd Pre-chorus]

  E  E  E  E  E  E  E  E     E  E  E  E  E  E  E  E
--------------------------|--------------------------|
--0--0--0--0-----0--3--0--|--5--3--------------3--4--|
--------------3-----------|--------5--3--3--5--------|
--------------------------|--------------------------|

                                         Back:to D
  E  E  E  E  E  E  E  E     E  E  E  E  E  E  E  E
--------7--5--------------|--5-----7--5--------------|
--5--7--------7--5--5--7--|-----5--------7--5--------|
--------------------------|--------------------7--0--|
--------------------------|--------------------------|


[H:2nd/3rd Post-chorus]                                          2nd time: to K

  W                   W                   W                   W
-------------------|-------------------|-------------------|-------------------|
--L----------------|--L----------------|--L----------------|--L----------------|
-------------------|-------------------|-------------------|-------------------|
-------------------|-------------------|-------------------|-------------------|


[I:1st Bridge]

    E  E  E  E  E  E  E  S S 11x  E  E  E  E  E  E  E  E
|-----------------------------||--------------------------|
|*---------------------------*||-----------3--5--3--6--5--|
|*--5--5--5--5--5--5--5--5-5-*||--5--5--5-----------------|
|-----------------------------||--------------------------|


    E  E  E  E  E  E  E  E     E  E  E  E  E  E  E  E
|---------------------------|--------------------------|
|*--7--7--7--7--7--7--7--7--|--6--6--6--6--6--6--6--6--|
|*--------------------------|--------------------------|
|---------------------------|--------------------------|


  E  E  E  E  E  E  E  E     E  E  E  E  E  E  E  E
--------------------------|---------------------------||
--5--5--5--5--5--5--5--5--|--4--4--4--4--4--4--4--4--*||
--------------------------|--------------------------*||
--------------------------|---------------------------||


  E  E  E  E  E  E  E  E     E  E  E  E  E  E  E  E
--------------------------|--------------------------|
--3--3--3--3--3--3--3--3--|--3--3--3--3--3-----------|
--------------------------|-----------------0--3--4--|
--------------------------|--------------------------|


  E  E  E  E  E  E  E  E     E  E  E  E  E  E  E  E     W
--------------------------|--------------------------|-------------------|
--------------------------|--------------------------|--7----------------|
--5--5--5--5--5--5--5--5--|--5--5--5--5--5--5--5--5--|-------------------|
--------------------------|--------------------------|-------------------|


  W                   W                   W
-------------------|-------------------|-------------------|
--L----------------|--L----------------|--L----------------|
-------------------|-------------------|-------------------|
-------------------|-------------------|-------------------|


    E  E  E  E  E  E  E  E   4x   W                   Q    E  Q    E  Q     4x
|----------------------------||--------------------|------------------------||
|*-----------------------7--*||*-------------------|--3-------5-------3----*||
|*--0--0--0--0--0--0--7-----*||*--5----------------|-------5-------5-------*||
|----------------------------||--------------------|------------------------||


  E  E  E  E  E  E  E  E     E  E  E  E  H           W
-----------------------2--|-----5-----5--7--------|--L----------------|
-----------3-----5--------|-----------------------|-------------------|
--3--5--------------------|-----------------------|-------------------|
--------------------------|-----------------------|-------------------|


  H        E  E  E  E     E  E  E  E  E  E  E  E     W
--L--------7--5--------|--------------------------|-------------------|
--------------------7--|-----6-----5--------------|-------------------|
-----------------------|-----------------7--5-----|--3----------------|
-----------------------|--------------------------|-------------------|

                              Back:to B
  W                   H        H
-------------------|--------------------|
-------------------|--------------------|
--L----------------|--3--------1--------|
-------------------|--------------------|


[J:3rd Pre-chorus]

  E  E  E  E  E  E  E  E     E  E  E  E  E  E  E  E
--------------------------|--------------------------|
--0--0--0--0-----0--3--0--|--5--3--------------3--4--|
--------------3-----------|--------5--3--3--5--------|
--------------------------|--------------------------|

                                       Back:to D
  E  E  E  E  E  E  E  E     E  E  E  E  E  E  E  E
--------7--5--------8--7--|--5-----------------------|
--5--7--------7--5--------|-----7--5-----------------|
--------------------------|-----------7--3--4--5--0--|
--------------------------|--------------------------|


[K: 2nd Bridge]

    E  E  E  E  E  E  E  S S  7x  E  E  E  E  E  E  E  E
|-----------------------------||--------------------------|
|*---------------------------*||--------------------------|
|*--5--5--5--5--5--5--5--5-5-*||--5--5--5--5--5--4--3--2--|
|-----------------------------||--------------------------|


    E  E  E  E  E  E  E  E   4x   E  E  E  E  E  E  E  E   3x
|----------------------------||----------------------------||
|*--------------------------*||*-----------------------7--*||
|*--0--0--0--0--0--0--0--0--*||*--0--0--0--0--0--0--7-----*||
|----------------------------||----------------------------||


  E  E  E  E  E  E  E  E     E  E  E  E  E  E  E  E
--------------------------|--------------------------|
--------------------------|--------------------------|
--0--0--0--0--0--2--3--4--|--5--5--5--5--5--5--5--5--|
--------------------------|--------------------------|


  E  E  E  E  E  E  E  E     E  E  E  E  E  E  E  E
--------------------------|--------------------------|
--------------------3--4--|--5--5--5--5--5--5--5--5--|
--5--5--5--5--5--5--------|--------------------------|
--------------------------|--------------------------|


  E  E  E  E  E  E  E  E     E  E  E  E  E  E  E  E
--------------------------|--------------------------|
--5--5--5--5--5--3--------|--------------------------|
--------------------5--4--|--3--3--3--3--3--3--3--3--|
--------------------------|--------------------------|


  E  E  E  E  E  E  E  E     E  E  E  E  E  E  E  E
--------------------------|--------------------------|
-----------------4--5--6--|--7--7--7--7--7--7--7--7--|
--3--3--3--3--3-----------|--------------------------|
--------------------------|--------------------------|


  E  E  E  E  E  E  E  E     E  E  E  E  E  E  E  E
--------------------------|--------------------------|
--7--5--------------------|--------------------------|
--------7--6--5--3--0--3--|--5--5--5--5--5--5--5--5--|
--------------------------|--------------------------|


  E  E  E  E  E  E  E  E     E  E  E  E  E  E  E  E
--------------------------|--------------------------|
--------------------3--4--|--5--5--5--5--5--5--5--5--|
--5--5--5--5--5--5--------|--------------------------|
--------------------------|--------------------------|


  E  E  E  E  E  E  E  E     E  E  E  E  E  E  E  E
--------------------------|--------------------------|
--5--5--5--5--5--3--------|--------------------------|
--------------------5--4--|--3--3--3--3--3--3--3--3--|
--------------------------|--------------------------|


  E  E  E  E  E  E  E  E     E  E  E  E  E  E  E  E
--5--3--------------------|--------------------------|
--------5--3--2--0--------|--------------------------|
--------------------3-----|--0--0--0--0--0--3--3--5--|
-----------------------3--|--------------------------|


  E  E  E  E  E  E  E  E     E  E  E  E  E  E  E  E
--------------------------|--------------------------|
-----------5--5--7--5-----|--------------------------|
--5--7--7--------------7--|--5--5--5--5--5--5--5--5--|
--------------------------|--------------------------|


  E  E  E  E  E  E  E  E     E  E  E  E  E  E  E  E
-----------------7--5-----|--------------------------|
-----------------------7--|--5--5--5--5--5--5--5--5--|
--5--5--5--5--5-----------|--------------------------|
--------------------------|--------------------------|


  E  E  E  E  E  E  E  E     E  E  E  E  E  E  E  E
--------------------------|--------------------------|
--5-----------------------|--------------------------|
-----2--2--3--3--4--4--5--|--3--3--3--3--3--3--3--3--|
--------------------------|--------------------------|


  E  E  E  E  E  E  E  E     E  E  E  E  E  E  E  E
--------------------------|--------------------------|
--------------------------|--------------------------|
--3--3--3--3--3--3--2--1--|--0--0--0--0--0--0--0--0--|
--------------------------|--------------------------|


  E  E  E  E  E  E  E  E     E  E  E  E  E  E  E  E
--------------------------|--------------------------|
-----7--5-----------------|--------------------------|
--0--------7--5--3--0--3--|--5--5--5--5--5--5--5--5--|
--------------------------|--------------------------|


  E  E  E  E  E  E  E  E     E  E  E  E  E  E  E  E
-----------------7--5-----|--------------------------|
-----------------------7--|--5--5--5--5--5--5--5--5--|
--5--5--5--5--5-----------|--------------------------|
--------------------------|--------------------------|


  E  E  E  E  E  E  E  E     E  E  E  E  E  E  E  E
--------------------------|--------------------------|
--5-----------------------|--------------------------|
-----------0--0--1--1--2--|--3--3--3--3--3--3--3--3--|
-----3--3-----------------|--------------------------|

                                                                 Back:to F
  E  E  E  E  E  E  E  E       E  E  E  E  E  E  E  E  10x  H        H
--------------------------||----------------------------||--------------------|
-----------------4--5--6--||*--7--7--7--7--7--7--7--7--*||--------------------|
--3--3--3--3--3-----------||*--------------------------*||--3--------1--------|
--------------------------||----------------------------||--------------------|


[L: 4th Pre-chorus]

  E  E  E  E  E  E  E  E
--------------------------|
--0--0--0--0-----0--3--0--|
--------------3-----------|
--------------------------|


  E  E  E  E  E  E  E  E     E  E  E  E  E  E  E  E
--------------------------|--------7--5--------------|
--5--3--------------3--4--|--5--7--------7--5--5--7--|
--------5--3--3--5--------|--------------------------|
--------------------------|--------------------------|

             Back:to D
  E  E  E  E  E  E  E  E
--5-----8--7--5-----------|
-----7-----------7--5-----|
-----------------------0--|
--------------------------|


  E  E  E  E  E  E  E  E     E  E  E  E  E  E  E  Q
--------------------------|----------------------------|
--------------------------|----------------------------|
--L--0--3--0--5--0--7--0--|--L--0--3--0--5--0--7--0----|
--------------------------|----------------------------|


  E  E  E  Q    E  E  E     E  E  E  E  E  E  E  E     E  E  E  E  E  E  E  E
-------------------------|--------------------------|--------------------------|
-----5--7-------5--7-----|--------------------------|--------------------------|
--L--------0----------0--|--L--0--3--0--5--0--7--0--|--L--0--3--0--5--0--7--3--|
-------------------------|--------------------------|--------------------------|


  E  E  E  Q    E  E  E     E  E  E  Q    E  E  E     E  E  E  Q    E  E  E
-------------------------|-------------------------|-------------------------|
-----5----------7--------|-----5----------7--------|-----5----------7-----3--|
--L-----3--5-------5--3--|--L-----3--5-------5--3--|--L-----3--5-------5-----|
-------------------------|-------------------------|-------------------------|


[N: Outro]

  Q    E  Q    E  E  E     E  E  E  Q    E  E  E
------------------------|----------------5--------|
--L----L-------5--------|-----7-----3-------3--5--|
----------3-------3--5--|--L-----5----------------|
------------------------|-------------------------|


  E  E  E  Q    Q    E     E  E  E  Q    E  E  E     E  E  E  Q    E  E  E
-----7------------------|-------------------------|-----5----------7--------|
--L-----5--7----L-------|-----5----------7-----3--|--L-----3--5-------5-----|
---------------------3--|--L-----3--5-------5-----|-------------------------|
------------------------|-------------------------|-------------------------|


[O:End Wankery]

  S S S S S S S S S S S S S S S S    S S S S S S S S  S  S  S  S  S  S  S  S
----------------------------------|--9-9-9-9-9-9-9-9-12-12-12-12-12-12-12-12-|
--7-7-7-7-7-7-7-7-7-7-7-7-7-7-7-7-|------------------------------------------|
----------------------------------|------------------------------------------|
----------------------------------|------------------------------------------|


   S  S  S  S  S  S  S  S  S  S  S  S  S  S  S  S
--17-17-17-17-17-17-17-17-14-14-14-14-14-14-14-14-||
--------------------------------------------------||
--------------------------------------------------||
--------------------------------------------------||



After the above there is like a little Solo/improv thing but i dont know whats played 
just improv in the key of G and make sure you land on low G for the very last hit


Duration Legend
---------------
W - whole
H - half
Q - quarter
E - 8th
S - 16th
T - 32nd
X - 64th
. - note dotted
|-n-|  - n-tuplets


Tablature Legend
----------------
L - tied note
x - dead note
g - grace note
(n) - ghost note
> - accentuded note
NH - natural harmonic
AH - artificial harmonic
TH - tapped harmonic
SH - semi harmonic
PH - pitch harmonic
h - hammer on
p - pull off
b - bend
br - bendRelease
pb - preBend
pbr - preBendRelease
brb - bendReleaseBend
\n/ - tremolo bar dip
\n - tremolo bar dive
-/n - tremolo bar Release up
/n\ - tremolo bar inverted dip
/n - tremolo bar return
-\n - tremolo bar Release down
S - shift slide
s - legato slide
/ -  slide into from below or out of upwards
\ -  slide into from above or out of downwards
~ - vibrato
W - wide vibrato
tr - trill
TP - tremolo picking
T - tapping
S - slap
P - pop
< - fade in
^ - brush up
v - brush down
Suggest correction
What's this?
You can suggest a correction to this tab. Community and Mods will review your correction and vote to approve or reject it.
comments
print report bad tab
guest
You may want to rate the tab now too:
select rating
Please do not post tabs as comments. Select "correction" instead!