Oops, an error
Loading. Please wait.
We have an official Highway Star tab made by UG professional guitarists. Check out the tab »
×
48,559 views 30 this week
6 commentsread comments
1 2 3 4 5
x 9
add to favorites
×
Save as Personal and add changes to this tab that will be seen only by you. Learn more ›
×
You can save this tab as Personal to edit and correct it or add notes. All changes will be seen only by you. Learn more »
launch autoscroll
font size
0
reset
guitar tuner
backing track
0:00
0:00
edit
Autoscroll
slow
fast
+/-
esc
set tempo
stop
Author
Highway Star
                                 Transcribed By: Justin Volz
                                 Email: justin_v99@hotmail.com


                                                                     Deep Purple
Bass

       E   E   E   E   E   E   E   E   4x    E   E   E   E   E   E   E   E   3x
G|------------------------------------||---12--12--12--12--12--12--12--12---||
D|*----------------------------------*||*----------------------------------*||
A|*--10--10--10--10--10--10--10--10--*||*----------------------------------*||
E|------------------------------------||------------------------------------||


     E   E   E    E   E  E   E  E        E   E   E   E   E   E   E   E  14x
G|--10-----------------------------||------------------------------------||
D|------12--10h--11--10--8---------||*----------------------------------*||
A|--------------------------10--8--||*--10--10--10--10--10--10--10--10--*||
E|---------------------------------||------------------------------------||

    H        H           E  E  E  E  E  E  E  E     E  E  E  E  E  E  E  E
G|--------------------|--------------------------|--------------------------|
D|--------------------|--5--5--5--5--5--5--5--5--|--5--5--5--5--5--5-----3--|
A|--3--------1--------|--------------------------|--------------------5-----|
E|--------------------|--------------------------|--------------------------|

    E  E  E  E  E  E  E  E     Q    E  Q    E  Q       E  E  E  E  E  E  E  E
G|--------------------------|-----------------------|--------------------------|
D|--5--5--5--5--5--3--------|-----------------------|--5--5--5--5--5--5--5--5--|
A|--------------------5--3--|--1-------3-------1----|--------------------------|
E|--------------------------|-------3-------3-------|--------------------------|

    E  E  E  E  E  E  E  E     E  E  E  E  E  E  E  E     Q    E  Q    E  Q
G|--------------------------|--------------------------|-----------------------|
D|--5--5--5--5--3-----3--4--|--5--5--5--5--5--3--------|-----------------------|
A|-----------------5--------|--------------------5--3--|--1-------3-------1----|
E|--------------------------|--------------------------|-------3-------3-------|

    E  E  E  E  E  E  E  E     E  E  E  E  E  E  E  E
G|--------------------------|--------------------------|
D|--3--3--3--3--3--3--3--3--|--3--------------1--1--2--|
A|--------------------------|-----0--1--2--2-----------|
E|--------------------------|--------------------------|

    E  E  E  E  E  E  E  E     Q    Q    Q    Q       E  E  E  E  E  E  E  E
G|--------------------------|----------------------|--------------------------|
D|--3--3--3--3--3--------1--|--3----3----2----1----|--0--0--0--0-----0--3--0--|
A|-----------------1--3-----|----------------------|--------------3-----------|
E|--------------------------|----------------------|--------------------------|

    E  E  E  E  E  E  E  E     E  E  E  E  E  E  E  E
G|--------------------------|--------7--5--------------|
D|--5--3--------------3--4--|--5--7--------7--5--5--6--|
A|--------5--3--3--5--------|--------------------------|
E|--------------------------|--------------------------|

    E  E  E  E  E  E  E  E     E  E  E  E  E  E  E  E
G|--------------------------|--------------------------|
D|--7--5--------------------|--------------------------|
A|--------7--5--3--4--5--0--|--L--0--3--0--5--0--7--0--|
E|--------------------------|--------------------------|

    E  E  E  E  E  E  E  E     E  E  E  E  E  E  E  Q
G|--------------------------|----------------------------|
D|--------------------------|----------------------------|
A|--L--0--3--0--5--0--7--0--|--L--0--3--0--5--0--7--0----|
E|--------------------------|----------------------------|

    E  E  E  Q    E  E  E     E  E  E  E  E  E  E  E     E  E  E  E  E  E  E  E
G|-------------------------|--------------------------|--------------------------|
D|-----5--7-------5--7-----|--------------------------|--------------------------|
A|--L--------0----------0--|--L--0--3--0--5--0--7--0--|--L--0--3--0--5--0--7--3--|
E|-------------------------|--------------------------|--------------------------|

    E  E  E  Q    E  E  E     E  E  E  Q    E  E  E     E  E  E  Q    E  E  E
G|-------------------------|-------------------------|-------------------------|
D|-----5----------7--------|-----5----------7--------|-----5----------7-----3--|
A|--L-----3--5-------5--3--|--L-----3--5-------5--3--|--L-----3--5-------5-----|
E|-------------------------|-------------------------|-------------------------|

    E  E  E  Q    E  E  E     W                   W
G|-----5----------7--------|-------------------|-------------------|
D|--L-----3--5-------5--7--|--L----------------|--L----------------|
A|-------------------------|-------------------|-------------------|
E|-------------------------|-------------------|-------------------|

    W                   H        H           E  E  E  E  E  E  E  E
G|-------------------|--------------------|--------------------------|
D|--L----------------|--------------------|--5--5--5--5--5--5--5--5--|
A|-------------------|--3--------1--------|--------------------------|
E|-------------------|--------------------|--------------------------|

    E  E  E  E  E  E  E  E     E  E  E  E  E  E  E  E     Q    E  Q    E  Q
G|--------------------------|--------------------------|-----------------------|
D|--5--5--5--5--3-----3--4--|--5--5--5--5--5--3--------|-----------------------|
A|-----------------5--------|--------------------5--3--|--1-------3-------1----|
E|--------------------------|--------------------------|-------3-------3-------|

    E  E  E  E  E  E  E  E     E  E  E  E  E  E  E  E
G|--------------------------|--------------------3-----|
D|--5--5--5--5--5--5--5--5--|--5--5--5--5--3--------3--|
A|--------------------------|-----------------5--------|
E|--------------------------|--------------------------|

    E  E  E  E  E  E  E  E     Q    E  Q    E  Q       E  E  E  E  E  E  E  E
G|--------------------------|-----------------------|--------------------------|
D|--5--5--5--5--5--3--------|-----------------------|--3--3--3--3--3--3--3--3--|
A|--------------------5--3--|--1-------3-------1----|--------------------------|
E|--------------------------|-------3-------3-------|--------------------------|

    E  E  E  E  E  E  E  E     E  E  E  E  E  E  E  E     Q    Q    Q    Q
G|--------------------------|--------------------------|----------------------|
D|--3--------------1--1--2--|--3--3--3--3--3--------1--|--3----3----2----1----|
A|-----0--1--2--2-----------|-----------------1--3-----|----------------------|
E|--------------------------|--------------------------|----------------------|

    E  E  E  E  E  E  E  E     E  E  E  E  E  E  E  E
G|--------------------------|--------------------------|
D|--0--0--0--0-----0--3--0--|--5--3--------------3--4--|
A|--------------3-----------|--------5--3--3--5--------|
E|--------------------------|--------------------------|

    E  E  E  E  E  E  E  E     E  E  E  E  E  E  E  E
G|--------7--5--------------|--5-----7--5--------------|
D|--5--7--------7--5--5--7--|-----5--------7--5--------|
A|--------------------------|--------------------7--0--|
E|--------------------------|--------------------------|

    E  E  E  E  E  E  E  E     E  E  E  E  E  E  E  E
G|--------------------------|--------------------------|
D|--------------------------|--------------------------|
A|--L--0--3--0--5--0--7--0--|--L--0--3--0--5--0--7--0--|
E|--------------------------|--------------------------|

    E  E  E  E  E  E  E  Q       E  E  E  Q    E  E  E
G|----------------------------|-------------------------|
D|----------------------------|-----5--7-------5--7-----|
A|--L--0--3--0--5--0--7--0----|--L--------0----------0--|
E|----------------------------|-------------------------|

    E  E  E  E  E  E  E  E     E  E  E  E  E  E  E  E     E  E  E  Q    E  E  E
G|--------------------------|--------------------------|-------------------------|
D|--------------------------|--------------------------|-----5----------7--------|
A|--L--0--3--0--5--0--7--0--|--L--0--3--0--5--0--7--3--|--L-----3--5-------5--3--|
E|--------------------------|--------------------------|-------------------------|

    E  E  E  Q    E  E  E     E  E  E  Q    E  E  E     E  E  E  Q    E  E  E
G|-------------------------|-------------------------|-----5----------7--------|
D|-----5----------7--------|-----5----------7-----3--|--L-----3--5-------5--7--|
A|--L-----3--5-------5--3--|--L-----3--5-------5-----|-------------------------|
E|-------------------------|-------------------------|-------------------------|

    W                   W                   W                   W
G|-------------------|-------------------|-------------------|-------------------|
D|--L----------------|--L----------------|--L----------------|--L----------------|
A|-------------------|-------------------|-------------------|-------------------|
E|-------------------|-------------------|-------------------|-------------------|

     E  E  E  E  E  E  E  S S 11x  E  E  E  E  E  E  E  E
G|-----------------------------||--------------------------|
D|*---------------------------*||-----------3--5--3--6--5--|
A|*--5--5--5--5--5--5--5--5-5-*||--5--5--5-----------------|
E|-----------------------------||--------------------------|

     E  E  E  E  E  E  E  E     E  E  E  E  E  E  E  E
G|---------------------------|--------------------------|
D|*--7--7--7--7--7--7--7--7--|--6--6--6--6--6--6--6--6--|
A|*--------------------------|--------------------------|
E|---------------------------|--------------------------|

    E  E  E  E  E  E  E  E     E  E  E  E  E  E  E  E
G|--------------------------|---------------------------||
D|--5--5--5--5--5--5--5--5--|--4--4--4--4--4--4--4--4--*||
A|--------------------------|--------------------------*||
E|--------------------------|---------------------------||

    E  E  E  E  E  E  E  E     E  E  E  E  E  E  E  E
G|--------------------------|--------------------------|
D|--3--3--3--3--3--3--3--3--|--3--3--3--3--3-----------|
A|--------------------------|-----------------0--3--4--|
E|--------------------------|--------------------------|

    E  E  E  E  E  E  E  E     E  E  E  E  E  E  E  E     W
G|--------------------------|--------------------------|-------------------|
D|--------------------------|--------------------------|--7----------------|
A|--5--5--5--5--5--5--5--5--|--5--5--5--5--5--5--5--5--|-------------------|
E|--------------------------|--------------------------|-------------------|

    W                   W                   W
G|-------------------|-------------------|-------------------|
D|--L----------------|--L----------------|--L----------------|
A|-------------------|-------------------|-------------------|
E|-------------------|-------------------|-------------------|

     E  E  E  E  E  E  E  E   4x   W                   Q    E  Q    E  Q     4x
G|----------------------------||--------------------|------------------------||
D|*-----------------------7--*||*-------------------|--3-------5-------3----*||
A|*--0--0--0--0--0--0--7-----*||*--5----------------|-------5-------5-------*||
E|----------------------------||--------------------|------------------------||

    E  E  E  E  E  E  E  E     E  E  E  E  H           W
G|-----------------------2--|-----5-----5--7--------|--L----------------|
D|-----------3-----5--------|-----------------------|-------------------|
A|--3--5--------------------|-----------------------|-------------------|
E|--------------------------|-----------------------|-------------------|

    H        E  E  E  E     E  E  E  E  E  E  E  E     W
G|--L--------7--5--------|--------------------------|-------------------|
D|--------------------7--|-----6-----5--------------|-------------------|
A|-----------------------|-----------------7--5-----|--3----------------|
E|-----------------------|--------------------------|-------------------|

    W                   H        H           E  E  E  E  E  E  E  E
G|-------------------|--------------------|--------------------------|
D|-------------------|--------------------|--5--5--5--5--5--5--5--5--|
A|--L----------------|--3--------1--------|--------------------------|
E|-------------------|--------------------|--------------------------|

    E  E  E  E  E  E  E  E     E  E  E  E  E  E  E  E     Q    E  Q    E  Q
G|--------------------------|--------------------------|-----------------------|
D|--5--5--5--5--5--5-----3--|--5--5--5--5--5--3--------|-----------------------|
A|--------------------5-----|--------------------5--3--|--1-------3-------1----|
E|--------------------------|--------------------------|-------3-------3-------|

    E  E  E  E  E  E  E  E     E  E  E  E  E  E  E  E
G|--------------------------|--------------------------|
D|--5--5--5--5--5--5--5--5--|--5--5--5--5--3-----3--4--|
A|--------------------------|-----------------5--------|
E|--------------------------|--------------------------|

    E  E  E  E  E  E  E  E     Q    E  Q    E  Q       E  E  E  E  E  E  E  E
G|--------------------------|-----------------------|--------------------------|
D|--5--5--5--5--5--3--------|-----------------------|--3--3--3--3--3--3--3--3--|
A|--------------------5--3--|--1-------3-------1----|--------------------------|
E|--------------------------|-------3-------3-------|--------------------------|

    E  E  E  E  E  E  E  E     E  E  E  E  E  E  E  E     Q    Q    Q    Q
G|--------------------------|--------------------------|----------------------|
D|--3--------------1--1--2--|--3--3--3--3--3--------1--|--3----3----2----1----|
A|-----0--1--2--2-----------|-----------------1--3-----|----------------------|
E|--------------------------|--------------------------|----------------------|

    E  E  E  E  E  E  E  E     E  E  E  E  E  E  E  E
G|--------------------------|--------------------------|
D|--0--0--0--0-----0--3--0--|--5--3--------------3--4--|
A|--------------3-----------|--------5--3--3--5--------|
E|--------------------------|--------------------------|

    E  E  E  E  E  E  E  E     E  E  E  E  E  E  E  E
G|--------7--5--------8--7--|--5-----------------------|
D|--5--7--------7--5--------|-----7--5-----------------|
A|--------------------------|-----------7--3--4--5--0--|
E|--------------------------|--------------------------|

    E  E  E  E  E  E  E  E     E  E  E  E  E  E  E  E
G|--------------------------|--------------------------|
D|--------------------------|--------------------------|
A|--L--0--3--0--5--0--7--0--|--L--0--3--0--5--0--7--0--|
E|--------------------------|--------------------------|

    E  E  E  E  E  E  E  Q       E  E  E  Q    E  E  E
G|----------------------------|-------------------------|
D|----------------------------|-----5--7-------5--7-----|
A|--L--0--3--0--5--0--7--0----|--L--------0----------0--|
E|----------------------------|-------------------------|

    E  E  E  E  E  E  E  E     E  E  E  E  E  E  E  E     E  E  E  Q    E  E  E
G|--------------------------|--------------------------|-------------------------|
D|--------------------------|--------------------------|-----5----------7--------|
A|--L--0--3--0--5--0--7--0--|--L--0--3--0--5--0--7--3--|--L-----3--5-------5--3--|
E|--------------------------|--------------------------|-------------------------|

    E  E  E  Q    E  E  E     E  E  E  Q    E  E  E     E  E  E  Q    E  E  E
G|-------------------------|-------------------------|-----5----------7--------|
D|-----5----------7--------|-----5----------7-----3--|--L-----3--5-------5--7--|
A|--L-----3--5-------5--3--|--L-----3--5-------5-----|-------------------------|
E|-------------------------|-------------------------|-------------------------|

    W                   W                   W                   W
G|-------------------|-------------------|-------------------|-------------------|
D|--L----------------|--L----------------|--L----------------|--L----------------|
A|-------------------|-------------------|-------------------|-------------------|
E|-------------------|-------------------|-------------------|-------------------|

     E  E  E  E  E  E  E  S S  7x  E  E  E  E  E  E  E  E
G|-----------------------------||--------------------------|
D|*---------------------------*||--------------------------|
A|*--5--5--5--5--5--5--5--5-5-*||--5--5--5--5--5--4--3--2--|
E|-----------------------------||--------------------------|

     E  E  E  E  E  E  E  E   4x   E  E  E  E  E  E  E  E   3x
G|----------------------------||----------------------------||
D|*--------------------------*||*-----------------------7--*||
A|*--0--0--0--0--0--0--0--0--*||*--0--0--0--0--0--0--7-----*||
E|----------------------------||----------------------------||

    E  E  E  E  E  E  E  E     E  E  E  E  E  E  E  E
G|--------------------------|--------------------------|
D|--------------------------|--------------------------|
A|--0--0--0--0--0--2--3--4--|--5--5--5--5--5--5--5--5--|
E|--------------------------|--------------------------|

    E  E  E  E  E  E  E  E     E  E  E  E  E  E  E  E
G|--------------------------|--------------------------|
D|--------------------3--4--|--5--5--5--5--5--5--5--5--|
A|--5--5--5--5--5--5--------|--------------------------|
E|--------------------------|--------------------------|

    E  E  E  E  E  E  E  E     E  E  E  E  E  E  E  E
G|--------------------------|--------------------------|
D|--5--5--5--5--5--3--------|--------------------------|
A|--------------------5--4--|--3--3--3--3--3--3--3--3--|
E|--------------------------|--------------------------|

    E  E  E  E  E  E  E  E     E  E  E  E  E  E  E  E
G|--------------------------|--------------------------|
D|-----------------4--5--6--|--7--7--7--7--7--7--7--7--|
A|--3--3--3--3--3-----------|--------------------------|
E|--------------------------|--------------------------|

    E  E  E  E  E  E  E  E     E  E  E  E  E  E  E  E
G|--------------------------|--------------------------|
D|--7--5--------------------|--------------------------|
A|--------7--6--5--3--0--3--|--5--5--5--5--5--5--5--5--|
E|--------------------------|--------------------------|

    E  E  E  E  E  E  E  E     E  E  E  E  E  E  E  E
G|--------------------------|--------------------------|
D|--------------------3--4--|--5--5--5--5--5--5--5--5--|
A|--5--5--5--5--5--5--------|--------------------------|
E|--------------------------|--------------------------|

    E  E  E  E  E  E  E  E     E  E  E  E  E  E  E  E
G|--------------------------|--------------------------|
D|--5--5--5--5--5--3--------|--------------------------|
A|--------------------5--4--|--3--3--3--3--3--3--3--3--|
E|--------------------------|--------------------------|

    E  E  E  E  E  E  E  E     E  E  E  E  E  E  E  E
G|--5--3--------------------|--------------------------|
D|--------5--3--2--0--------|--------------------------|
A|--------------------3-----|--0--0--0--0--0--3--3--5--|
E|-----------------------3--|--------------------------|

    E  E  E  E  E  E  E  E     E  E  E  E  E  E  E  E
G|--------------------------|--------------------------|
D|-----------5--5--7--5-----|--------------------------|
A|--5--7--7--------------7--|--5--5--5--5--5--5--5--5--|
E|--------------------------|--------------------------|

    E  E  E  E  E  E  E  E     E  E  E  E  E  E  E  E
G|-----------------7--5-----|--------------------------|
D|-----------------------7--|--5--5--5--5--5--5--5--5--|
A|--5--5--5--5--5-----------|--------------------------|
E|--------------------------|--------------------------|

    E  E  E  E  E  E  E  E     E  E  E  E  E  E  E  E
G|--------------------------|--------------------------|
D|--5-----------------------|--------------------------|
A|-----2--2--3--3--4--4--5--|--3--3--3--3--3--3--3--3--|
E|--------------------------|--------------------------|

    E  E  E  E  E  E  E  E     E  E  E  E  E  E  E  E
G|--------------------------|--------------------------|
D|--------------------------|--------------------------|
A|--3--3--3--3--3--3--2--1--|--0--0--0--0--0--0--0--0--|
E|--------------------------|--------------------------|

    E  E  E  E  E  E  E  E     E  E  E  E  E  E  E  E
G|--------------------------|--------------------------|
D|-----7--5-----------------|--------------------------|
A|--0--------7--5--3--0--3--|--5--5--5--5--5--5--5--5--|
E|--------------------------|--------------------------|

    E  E  E  E  E  E  E  E     E  E  E  E  E  E  E  E
G|-----------------7--5-----|--------------------------|
D|-----------------------7--|--5--5--5--5--5--5--5--5--|
A|--5--5--5--5--5-----------|--------------------------|
E|--------------------------|--------------------------|

    E  E  E  E  E  E  E  E     E  E  E  E  E  E  E  E
G|--------------------------|--------------------------|
D|--5-----------------------|--------------------------|
A|-----------0--0--1--1--2--|--3--3--3--3--3--3--3--3--|
E|-----3--3-----------------|--------------------------|

    E  E  E  E  E  E  E  E       E  E  E  E  E  E  E  E  10x  H        H
G|--------------------------||----------------------------||--------------------|
D|-----------------4--5--6--||*--7--7--7--7--7--7--7--7--*||--------------------|
A|--3--3--3--3--3-----------||*--------------------------*||--3--------1--------|
E|--------------------------||----------------------------||--------------------|

    E  E  E  E  E  E  E  E     E  E  E  E  E  E  E  E
G|--------------------------|--------------------------|
D|--5--5--5--5--5--5--5--5--|--5--5--5--5--3-----3--4--|
A|--------------------------|-----------------5--------|
E|--------------------------|--------------------------|

    E  E  E  E  E  E  E  E     Q    E  Q    E  Q       E  E  E  E  E  E  E  E
G|--------------------------|-----------------------|--------------------------|
D|--5--5--5--5--5--3--------|-----------------------|--5--5--5--5--5--5--5--5--|
A|--------------------5--3--|--1-------3-------1----|--------------------------|
E|--------------------------|-------3-------3-------|--------------------------|

    E  E  E  E  E  E  E  E     E  E  E  E  E  E  E  E     Q    E  Q    E  Q
G|--------------------3-----|--------------------------|-----------------------|
D|--5--5--5--5--3--------3--|--5--5--5--5--5--3--------|-----------------------|
A|-----------------5--------|--------------------5--3--|--1-------3-------1----|
E|--------------------------|--------------------------|-------3-------3-------|

    E  E  E  E  E  E  E  E     E  E  E  E  E  E  E  E
G|--------------------------|--------------------------|
D|--3--3--3--3--3--3--3--3--|--3--------------1--1--2--|
A|--------------------------|-----0--1--2--2-----------|
E|--------------------------|--------------------------|

    E  E  E  E  E  E  E  E     Q    Q    Q    Q       E  E  E  E  E  E  E  E
G|--------------------------|----------------------|--------------------------|
D|--3--3--3--3--3--------1--|--3----3----2----1----|--0--0--0--0-----0--3--0--|
A|-----------------1--3-----|----------------------|--------------3-----------|
E|--------------------------|----------------------|--------------------------|

    E  E  E  E  E  E  E  E     E  E  E  E  E  E  E  E
G|--------------------------|--------7--5--------------|
D|--5--3--------------3--4--|--5--7--------7--5--5--7--|
A|--------5--3--3--5--------|--------------------------|
E|--------------------------|--------------------------|

    E  E  E  E  E  E  E  E     E  E  E  E  E  E  E  E
G|--5-----8--7--5-----------|--------------------------|
D|-----7-----------7--5-----|--------------------------|
A|-----------------------0--|--L--0--3--0--5--0--7--0--|
E|--------------------------|--------------------------|

    E  E  E  E  E  E  E  E     E  E  E  E  E  E  E  Q
G|--------------------------|----------------------------|
D|--------------------------|----------------------------|
A|--L--0--3--0--5--0--7--0--|--L--0--3--0--5--0--7--0----|
E|--------------------------|----------------------------|

    E  E  E  Q    E  E  E     E  E  E  E  E  E  E  E     E  E  E  E  E  E  E  E
G|-------------------------|--------------------------|--------------------------|
D|-----5--7-------5--7-----|--------------------------|--------------------------|
A|--L--------0----------0--|--L--0--3--0--5--0--7--0--|--L--0--3--0--5--0--7--3--|
E|-------------------------|--------------------------|--------------------------|

    E  E  E  Q    E  E  E     E  E  E  Q    E  E  E     E  E  E  Q    E  E  E
G|-------------------------|-------------------------|-------------------------|
D|-----5----------7--------|-----5----------7--------|-----5----------7-----3--|
A|--L-----3--5-------5--3--|--L-----3--5-------5--3--|--L-----3--5-------5-----|
E|-------------------------|-------------------------|-------------------------|

    E  E  E  Q    E  E  E     Q    E  Q    E  E  E     E  E  E  Q    E  E  E
G|-----5----------7--------|------------------------|----------------5--------|
D|--L-----3--5-------5--7--|--L----L-------5--------|-----7-----3-------3--5--|
A|-------------------------|----------3-------3--5--|--L-----5----------------|
E|-------------------------|------------------------|-------------------------|

    E  E  E  Q    Q    E     E  E  E  Q    E  E  E     E  E  E  Q    E  E  E
G|-----7------------------|-------------------------|-----5----------7--------|
D|--L-----5--7----L-------|-----5----------7-----3--|--L-----3--5-------5-----|
A|---------------------3--|--L-----3--5-------5-----|-------------------------|
E|------------------------|-------------------------|-------------------------|

    S S S S S S S S S S S S S S S S    S S S S S S S S  S  S  S  S  S  S  S  S
G|----------------------------------|--9-9-9-9-9-9-9-9-12-12-12-12-12-12-12-12-|
D|--7-7-7-7-7-7-7-7-7-7-7-7-7-7-7-7-|------------------------------------------|
A|----------------------------------|------------------------------------------|
E|----------------------------------|------------------------------------------|

     S  S  S  S  S  S  S  S  S  S  S  S  S  S  S  S
G|--17-17-17-17-17-17-17-17-14-14-14-14-14-14-14-14-||
D|--------------------------------------------------||
A|--------------------------------------------------||
E|--------------------------------------------------||

Duration Legend
---------------
W - whole
H - half
Q - quarter
E - 8th
S - 16th
T - 32nd
X - 64th
. - note dotted
|-n-|  - n-tuplets


************************************

| *  Natural harmonic
| h  Hammer-on

************************************

            
            
Suggest correction
Creating personal tab
Creating personal tab
You can edit any tab online and save it as your Personal.

You can edit, replace or remove any tab part or add personal notes – all changes will be seen only by you.

Personal tabs can be accessed anytime from any device, even offline.
Learn more »
comments
print report bad tab
6 comments total. Showing first comments.
+1 reply
kissmy(B)ASS 10 Dec 22, 2008 04:05 PM

Great tab overall, but the biggest thing is that it is very easy to get lost. ****'s

+1 reply
nightbreedfan 40 Dec 22, 2008 04:51 PM

Yeah, I know it's long and complex in parts. I have a Guitar Pro version that's easier to follow along with but the site wouldn't let me upload both versions. I uploaded the plain text version so everyone could look at it. Not only those with Guitar Pro.

0 reply
nECKsPIDER 31 Apr 16, 2009 05:30 PM

I agree. It is easy to get lost. But, its just me being OCD, but at the beginning when you switch for the 10 on A to the 12 on G, slide up to the 12 on G. It sounds more like the recorded version. I sometimes just slide up both times, just for the hell of it.

guest
You may want to rate the tab now too:
select rating
Wanna post a correction for this tab? Suggest correction