Oops, an error
Loading. Please wait.

Hush Tab

version 1
version 1

Whole song

Interactive

35,255 views 30 this week
4 commentsread comments
1 2 3 4 5
worth learning
x 8
add to favorites
launch autoscroll
font size
0
reset
how to read this tab
guitar tuner
Autoscroll
slow
fast
+/-
esc
set tempo
stop
Help us to improve Ultimate-Guitar.com Take our survey!
×
Gtr I (E A D G B E)

  Moderate Rock Q=110
 4/4
  Gtr I
      ~~                                            ~~~
  E   E   E    E         E E    E E E   E  E E    E E    E E E E
|-----------|---------|-----------------1------|---------3---3---|
|-----------|-13------|-10-----------------4s6-|-12-6b8----6---6-|
|-7---------|-13------|-10-3b5r=3-1------------|-12--------------|
|-8---------|-13------|-10----------3----------|-12--------------|
|-8---------|-11------|--8---------------------|-10--------------|
|-6--/6---6-|---------|------------------------|-----------------|


                                                     ~
  E E   E E    E         E E    E  E E E E E E E E E E  E   E   E E E E
|-3-----3---|-------|----6-----------------------------------------------|
|-3-------3-|--6b8r=|======6b8r=6--4-6-4-3---4-3-4-3---------------------|
|---6b7-----|-------|----------------------5---------5--5b8r5b8-5-3-0-3--|
|-----------|-------|----------------------------------------------------|
|-----------|-------|----------------------------------------------------|
|-----------|-------|----------------------------------------------------|


      ~                   ~
  E E E   E E E E E E E E E    E     E  E E E E E   E  E  E  E
|---------------------------------|-------------------------------|
|---------------------------------|-----------------------8-10----|
|---------------------------------|-----------8-8---------8-10----|
|-5s3-1---5-3-3s5-3-5---5---------|-10-10-----8-8--10-10--8-10----|
|---------------------6---3----3--|-10-10----------10-10----------|
|---------------------------------|--8--8-----------8--8----------|


   E      E  E  E  E  E  E  E  E  E  E   E     E   E   E     E
|-----------------------------------------------------------------|
|-----------------------------------------------------------------|
|-----------------------------------------------------------10----|
|-10-----10-10-10-10-10-10-10-10-10--8s=10----10--10---8----10----|
|-10-----10-10-10-10-10-10-10-10-10--8s=10----10--10---8-----8----|
|--8------8--8--8--8--8--8--8--8--8--6s==8-----8---8---6----------|


  E E E  E  E E  E E   E E E  E  E E  E E    E   E      E    E   E   E
|--------------------|--------------------|----------|-------------------|
|-------10-----------|-------10-----------|----------|-10----------------|
|---8---10-----------|---8---10-----------|----------|-10-------10-------|
|-6-8-8-10-10-8-10-8-|-6-8-8-10-10-8-10-8-|-10--10---|-10----8--10--10---|
|-6-6-8--8-10-8-10-8-|-6-6-8--8-10-8-10-8-|-10--10---|--8----8---8--10---|
|-4---6-----8-6--8-6-|-4---6-----8-6--8-6-|--8---8---|-------6-------8---|


   E E  E  E  E  E E E  E    E E  E  E  E E  E  E
|-------------------------|-----------------------|
|---------------10-----10-|-10--------------------|
|---------------10-----10-|-10---10---------------|
|-10s8S10-10-10-10-8-8-10-|-10-8-10-10-10s8S10-10-|
|-10s8s10-10-10--8-8-8--8-|--8-8--8-10-10s8s10-10-|
|--8s6s=8--8--8----6-6----|----6-----8--8s6s=8--8-|


                           ~
   E  E E E  E    E     E  E  E
|--------------|-----------------|
|----10-----10-|-----------------|
|----10-----10-|--6b7r==6--5--3--|
|-10-10-8-8-10-|-----------------|
|-10--8-8-8--8-|-----------------|
|--8----6-6----|-----------------|


    ~
  E E   E        E     E E E E E  E E E E E E   E E E E E E E E E E E
|-----------------------------------------------------------------------|
|-------8b11.5r==8b9r==8-6-8--------------------------------------------|
|-5-5------------------------8-7--6-7-6s5-3-4b6r4-3-1-------------1-0---|
|-----------------------------------------------------3-1-0-3-1-0-1-----|
|-----------------------------------------------------------------------|
|-----------------------------------------------------------------------|


         \0.5/     \1/   \1.5_______\0.5/     \4                         \1/
                   ~~~                                                   ~~~
  E      E     E   E     E        E E      E  E       E   E  E  E      E E
|---------------------------------------------------------------------10-8----|
|-----------------------------------------------------------------------------|
|-----------------------------------------------------------10-10b11r=========|
|-2b5r===2-----1---1-----1--------1----------------------10-------------------|
|-----------------------------------3------3----------------------------------|
|---------------------------------------------0-------0-----------------------|


Duration Legend
---------------
W - whole; H - half; Q - quarter; E - 8th; S - 16th; T - 32nd; X - 64th; a - acciaccatura
+ - note tied to previous; . - note dotted; .. - note double dotted
Uncapitalized letters represent notes that are staccato (1/2 duration)
Irregular groupings are notated above the duration line
Duration letters will always appear directly above the note/fret number it represents the
duration for.  Duration letters with no fret number below them represent rests.  Multi-
bar rests are notated in the form Wxn, where n is the number of bars to rest for.  Low
melody durations appear below the staff

Tablature Legend
----------------
 h   - hammer-on
 p   - pull-off
 b   - bend
 pb  - pre-bend
 r   - bend release (if no number after the r, then release immediately)
 /\  - slide into or out of (from/to "nowhere")
 s   - legato slide
 S   - shift slide
  - natural harmonic
[n]  - artificial harmonic
n(n) - tapped harmonic
 ~   - vibrato
 tr  - trill
 T   - tap
 TP  - trem. picking
 PM  - palm muting
\n/  - tremolo bar dip; n = amount to dip
 \n  - tremolo bar down
 n/  - tremolo bar up
/n\  - tremolo bar inverted dip
 =   - hold bend; also acts as connecting device for hammers/pulls
 <>  - volume swell (louder/softer)
 x   - on rhythm slash represents muted slash
 o   - on rhythm slash represents single note slash

Misc Legend
-----------
 |  - bar
||  - double bar
||o - repeat start
o|| - repeat end
*|  - double bar (ending)
 :  - bar (freetime)
 $  - Segno
 &  - Coda
Tempo markers -  = BPM(8/16=s8/s16), where s8 = swing 8ths, s16 = swing 16ths


***************************************************************************************
* Generated using Power Tab Editor by Brad Larsen - http://powertab.guitarnetwork.org *
***************************************************************************************

--------------------------------------------------------------------------------
This tab that I did was done live off Nobody's Perfect CD.On the solo shake the
wammy bar wide and do a lot of bar drops,Fender Stat perfect.Have Fun.
Suggest correction
What's this?
You can suggest a correction to this tab. Community and Mods will review your correction and vote to approve or reject it.
comments
print report bad tab
4 comments total. Showing first comments.
0 reply
yakreig 100 wrote on May 18 2007, 01:00 pm

i dont find this tab accurate at all

0 reply
AgentHappyDay 80 wrote on September 18 2007, 11:19 pm

is this even the right song?

-2 reply
Josh/warpedrock 14 wrote on March 10 2008, 10:45 pm

tab sucks

guest
You may want to rate the tab now too:
select rating
Please do not post tabs as comments. Select "correction" instead!